  0
SECTION
  2
HEADER
  9
$INSBASE
 10
0.0
20
0.0
  9
$REGENMODE
 70
     1
  9
$DRAGMODE
 70
     1
  9
$DIMTAD
 70
     1
  9
$EXTMIN
 10
-210.000000
 20
-148.500000
 30
 0.0
  9
$EXTMAX
 10
210.000000
 20
148.500000
 30
 0.0
  9
$LUPREC
 70
    3
  9
$AUPREC
 70
    3
  9
$LTSCALE
 40
26.250000
  0
ENDSEC
  0
SECTION
  2
TABLES
  0
TABLE
  2
LTYPE
 70
     6
  0
LTYPE
  2
CONTINUOUS
 70
    64
  3
SOLID
 72
    65
 73
     0
 40
0.0
  0
LTYPE
  2
DASHED2
 70
    64
  3
_ _ _ _ _ _ _ _ _ _ _ _ _ _ _ _ _ _ _ _ _ _ 
 72
    65
 73
     2
 40
0.5
 49
0.25
 49
-0.25
  0
LTYPE
  2
DASHED
 70
    64
  3
__ __ __ __ __ __ __ __ __ __ __ __ __ __ __
 72
    65
 73
     2
 40
0.75
 49
0.5
 49
-0.25
  0
LTYPE
  2
DASHEDX2
 70
    64
  3
____  ____  ____  ____  ____  ____  ____  __
 72
    65
 73
     2
 40
1.5
 49
1.0
 49
-0.5
  0
LTYPE
  2
DOT
 70
    64
  3
............................................
 72
    65
 73
     2
 40
0.25
 49
0
 49
-0.25
  0
LTYPE
  2
DASHDOT
 70
    64
  3
__ . __ . __ . __ . __ . __ . __ . __ . __ .
 72
    65
 73
     4
 40
1.0
 49
0.5
 49
-0.25
 49
0.0
 49
-0.25
  0
LTYPE
  2
CENTER
 70
    64
  3
____ _ ____ _ ____ _ ____ _ ____ _ ____ _ __
 72
    65
 73
     4
 40
2.0
 49
1.25
 49
-0.25
 49
0.25
 49
-0.25
  0
LTYPE
  2
DIVIDE
 70
    64
  3
__ . . __ . . __ . . __ . . __ . . __ . . __
 72
    65
 73
     6
 40
1.25
 49
0.5
 49
-0.25
 49
0.0
 49
-0.25
 49
0.0
 49
-0.25
  0
LTYPE
  2
PHANTOM2
 70
    64
  3
___ _ _ ___ _ _ ___ _ _ ___ _ _ ___ _ _ ___ 
 72
    65
 73
     6
 40
1.25
 49
0.625
 49
-0.125
 49
0.125
 49
-0.125
 49
0.125
 49
-0.125
  0
LTYPE
  2
DOTX2
 70
    64
  3
. . . . . . . . . . . . . . . . . . . . . . 
 72
    65
 73
     2
 40
0.5
 49
0
 49
-0.5
  0
ENDTAB
  0
TABLE
  2
LAYER
 70
   255
  0
LAYER
  2
0
 70
    64
 62
     7
  6
CONTINUOUS
  0
LAYER
  2
1
 70
    64
 62
     7
  6
CONTINUOUS
  0
LAYER
  2
2
 70
    64
 62
     7
  6
CONTINUOUS
  0
LAYER
  2
3
 70
    64
 62
     7
  6
CONTINUOUS
  0
LAYER
  2
4
 70
    64
 62
     7
  6
CONTINUOUS
  0
LAYER
  2
5
 70
    64
 62
     7
  6
CONTINUOUS
  0
LAYER
  2
6
 70
    64
 62
     7
  6
CONTINUOUS
  0
LAYER
  2
7
 70
    64
 62
     7
  6
CONTINUOUS
  0
LAYER
  2
8
 70
    64
 62
     7
  6
CONTINUOUS
  0
LAYER
  2
9
 70
    64
 62
     7
  6
CONTINUOUS
  0
LAYER
  2
10
 70
    64
 62
     7
  6
CONTINUOUS
  0
LAYER
  2
11
 70
    64
 62
     7
  6
CONTINUOUS
  0
LAYER
  2
12
 70
    64
 62
     7
  6
CONTINUOUS
  0
LAYER
  2
13
 70
    64
 62
     7
  6
CONTINUOUS
  0
LAYER
  2
14
 70
    64
 62
     7
  6
CONTINUOUS
  0
LAYER
  2
15
 70
    64
 62
     7
  6
CONTINUOUS
  0
LAYER
  2
16
 70
    64
 62
     7
  6
CONTINUOUS
  0
LAYER
  2
17
 70
    64
 62
     7
  6
CONTINUOUS
  0
LAYER
  2
18
 70
    64
 62
     7
  6
CONTINUOUS
  0
LAYER
  2
19
 70
    64
 62
     7
  6
CONTINUOUS
  0
LAYER
  2
20
 70
    64
 62
     7
  6
CONTINUOUS
  0
LAYER
  2
21
 70
    64
 62
     7
  6
CONTINUOUS
  0
LAYER
  2
22
 70
    64
 62
     7
  6
CONTINUOUS
  0
LAYER
  2
23
 70
    64
 62
     7
  6
CONTINUOUS
  0
LAYER
  2
24
 70
    64
 62
     7
  6
CONTINUOUS
  0
LAYER
  2
25
 70
    64
 62
     7
  6
CONTINUOUS
  0
LAYER
  2
26
 70
    64
 62
     7
  6
CONTINUOUS
  0
LAYER
  2
27
 70
    64
 62
     7
  6
CONTINUOUS
  0
LAYER
  2
28
 70
    64
 62
     7
  6
CONTINUOUS
  0
LAYER
  2
29
 70
    64
 62
     7
  6
CONTINUOUS
  0
LAYER
  2
30
 70
    64
 62
     7
  6
CONTINUOUS
  0
LAYER
  2
31
 70
    64
 62
     7
  6
CONTINUOUS
  0
LAYER
  2
32
 70
    64
 62
     7
  6
CONTINUOUS
  0
LAYER
  2
33
 70
    64
 62
     7
  6
CONTINUOUS
  0
LAYER
  2
34
 70
    64
 62
     7
  6
CONTINUOUS
  0
LAYER
  2
35
 70
    64
 62
     7
  6
CONTINUOUS
  0
LAYER
  2
36
 70
    64
 62
     7
  6
CONTINUOUS
  0
LAYER
  2
37
 70
    64
 62
     7
  6
CONTINUOUS
  0
LAYER
  2
38
 70
    64
 62
     7
  6
CONTINUOUS
  0
LAYER
  2
39
 70
    64
 62
     7
  6
CONTINUOUS
  0
LAYER
  2
40
 70
    64
 62
     7
  6
CONTINUOUS
  0
LAYER
  2
41
 70
    64
 62
     7
  6
CONTINUOUS
  0
LAYER
  2
42
 70
    64
 62
     7
  6
CONTINUOUS
  0
LAYER
  2
43
 70
    64
 62
     7
  6
CONTINUOUS
  0
LAYER
  2
44
 70
    64
 62
     7
  6
CONTINUOUS
  0
LAYER
  2
45
 70
    64
 62
     7
  6
CONTINUOUS
  0
LAYER
  2
46
 70
    64
 62
     7
  6
CONTINUOUS
  0
LAYER
  2
47
 70
    64
 62
     7
  6
CONTINUOUS
  0
LAYER
  2
48
 70
    64
 62
     7
  6
CONTINUOUS
  0
LAYER
  2
49
 70
    64
 62
     7
  6
CONTINUOUS
  0
LAYER
  2
50
 70
    64
 62
     7
  6
CONTINUOUS
  0
LAYER
  2
51
 70
    64
 62
     7
  6
CONTINUOUS
  0
LAYER
  2
52
 70
    64
 62
     7
  6
CONTINUOUS
  0
LAYER
  2
53
 70
    64
 62
     7
  6
CONTINUOUS
  0
LAYER
  2
54
 70
    64
 62
     7
  6
CONTINUOUS
  0
LAYER
  2
55
 70
    64
 62
     7
  6
CONTINUOUS
  0
LAYER
  2
56
 70
    64
 62
     7
  6
CONTINUOUS
  0
LAYER
  2
57
 70
    64
 62
     7
  6
CONTINUOUS
  0
LAYER
  2
58
 70
    64
 62
     7
  6
CONTINUOUS
  0
LAYER
  2
59
 70
    64
 62
     7
  6
CONTINUOUS
  0
LAYER
  2
60
 70
    64
 62
     7
  6
CONTINUOUS
  0
LAYER
  2
61
 70
    64
 62
     7
  6
CONTINUOUS
  0
LAYER
  2
62
 70
    64
 62
     7
  6
CONTINUOUS
  0
LAYER
  2
63
 70
    64
 62
     7
  6
CONTINUOUS
  0
LAYER
  2
64
 70
    64
 62
     7
  6
CONTINUOUS
  0
LAYER
  2
65
 70
    64
 62
     7
  6
CONTINUOUS
  0
LAYER
  2
66
 70
    64
 62
     7
  6
CONTINUOUS
  0
LAYER
  2
67
 70
    64
 62
     7
  6
CONTINUOUS
  0
LAYER
  2
68
 70
    64
 62
     7
  6
CONTINUOUS
  0
LAYER
  2
69
 70
    64
 62
     7
  6
CONTINUOUS
  0
LAYER
  2
70
 70
    64
 62
     7
  6
CONTINUOUS
  0
LAYER
  2
71
 70
    64
 62
     7
  6
CONTINUOUS
  0
LAYER
  2
72
 70
    64
 62
     7
  6
CONTINUOUS
  0
LAYER
  2
73
 70
    64
 62
     7
  6
CONTINUOUS
  0
LAYER
  2
74
 70
    64
 62
     7
  6
CONTINUOUS
  0
LAYER
  2
75
 70
    64
 62
     7
  6
CONTINUOUS
  0
LAYER
  2
76
 70
    64
 62
     7
  6
CONTINUOUS
  0
LAYER
  2
77
 70
    64
 62
     7
  6
CONTINUOUS
  0
LAYER
  2
78
 70
    64
 62
     7
  6
CONTINUOUS
  0
LAYER
  2
79
 70
    64
 62
     7
  6
CONTINUOUS
  0
LAYER
  2
80
 70
    64
 62
     7
  6
CONTINUOUS
  0
LAYER
  2
81
 70
    64
 62
     7
  6
CONTINUOUS
  0
LAYER
  2
82
 70
    64
 62
     7
  6
CONTINUOUS
  0
LAYER
  2
83
 70
    64
 62
     7
  6
CONTINUOUS
  0
LAYER
  2
84
 70
    64
 62
     7
  6
CONTINUOUS
  0
LAYER
  2
85
 70
    64
 62
     7
  6
CONTINUOUS
  0
LAYER
  2
86
 70
    64
 62
     7
  6
CONTINUOUS
  0
LAYER
  2
87
 70
    64
 62
     7
  6
CONTINUOUS
  0
LAYER
  2
88
 70
    64
 62
     7
  6
CONTINUOUS
  0
LAYER
  2
89
 70
    64
 62
     7
  6
CONTINUOUS
  0
LAYER
  2
90
 70
    64
 62
     7
  6
CONTINUOUS
  0
LAYER
  2
91
 70
    64
 62
     7
  6
CONTINUOUS
  0
LAYER
  2
92
 70
    64
 62
     7
  6
CONTINUOUS
  0
LAYER
  2
93
 70
    64
 62
     7
  6
CONTINUOUS
  0
LAYER
  2
94
 70
    64
 62
     7
  6
CONTINUOUS
  0
LAYER
  2
95
 70
    64
 62
     7
  6
CONTINUOUS
  0
LAYER
  2
96
 70
    64
 62
     7
  6
CONTINUOUS
  0
LAYER
  2
97
 70
    64
 62
     7
  6
CONTINUOUS
  0
LAYER
  2
98
 70
    64
 62
     7
  6
CONTINUOUS
  0
LAYER
  2
99
 70
    64
 62
     7
  6
CONTINUOUS
  0
LAYER
  2
100
 70
    64
 62
     7
  6
CONTINUOUS
  0
LAYER
  2
101
 70
    64
 62
     7
  6
CONTINUOUS
  0
LAYER
  2
102
 70
    64
 62
     7
  6
CONTINUOUS
  0
LAYER
  2
103
 70
    64
 62
     7
  6
CONTINUOUS
  0
LAYER
  2
104
 70
    64
 62
     7
  6
CONTINUOUS
  0
LAYER
  2
105
 70
    64
 62
     7
  6
CONTINUOUS
  0
LAYER
  2
106
 70
    64
 62
     7
  6
CONTINUOUS
  0
LAYER
  2
107
 70
    64
 62
     7
  6
CONTINUOUS
  0
LAYER
  2
108
 70
    64
 62
     7
  6
CONTINUOUS
  0
LAYER
  2
109
 70
    64
 62
     7
  6
CONTINUOUS
  0
LAYER
  2
110
 70
    64
 62
     7
  6
CONTINUOUS
  0
LAYER
  2
111
 70
    64
 62
     7
  6
CONTINUOUS
  0
LAYER
  2
112
 70
    64
 62
     7
  6
CONTINUOUS
  0
LAYER
  2
113
 70
    64
 62
     7
  6
CONTINUOUS
  0
LAYER
  2
114
 70
    64
 62
     7
  6
CONTINUOUS
  0
LAYER
  2
115
 70
    64
 62
     7
  6
CONTINUOUS
  0
LAYER
  2
116
 70
    64
 62
     7
  6
CONTINUOUS
  0
LAYER
  2
117
 70
    64
 62
     7
  6
CONTINUOUS
  0
LAYER
  2
118
 70
    64
 62
     7
  6
CONTINUOUS
  0
LAYER
  2
119
 70
    64
 62
     7
  6
CONTINUOUS
  0
LAYER
  2
120
 70
    64
 62
     7
  6
CONTINUOUS
  0
LAYER
  2
121
 70
    64
 62
     7
  6
CONTINUOUS
  0
LAYER
  2
122
 70
    64
 62
     7
  6
CONTINUOUS
  0
LAYER
  2
123
 70
    64
 62
     7
  6
CONTINUOUS
  0
LAYER
  2
124
 70
    64
 62
     7
  6
CONTINUOUS
  0
LAYER
  2
125
 70
    64
 62
     7
  6
CONTINUOUS
  0
LAYER
  2
126
 70
    64
 62
     7
  6
CONTINUOUS
  0
LAYER
  2
127
 70
    64
 62
     7
  6
CONTINUOUS
  0
LAYER
  2
128
 70
    64
 62
     7
  6
CONTINUOUS
  0
LAYER
  2
129
 70
    64
 62
     7
  6
CONTINUOUS
  0
LAYER
  2
130
 70
    64
 62
     7
  6
CONTINUOUS
  0
LAYER
  2
131
 70
    64
 62
     7
  6
CONTINUOUS
  0
LAYER
  2
132
 70
    64
 62
     7
  6
CONTINUOUS
  0
LAYER
  2
133
 70
    64
 62
     7
  6
CONTINUOUS
  0
LAYER
  2
134
 70
    64
 62
     7
  6
CONTINUOUS
  0
LAYER
  2
135
 70
    64
 62
     7
  6
CONTINUOUS
  0
LAYER
  2
136
 70
    64
 62
     7
  6
CONTINUOUS
  0
LAYER
  2
137
 70
    64
 62
     7
  6
CONTINUOUS
  0
LAYER
  2
138
 70
    64
 62
     7
  6
CONTINUOUS
  0
LAYER
  2
139
 70
    64
 62
     7
  6
CONTINUOUS
  0
LAYER
  2
140
 70
    64
 62
     7
  6
CONTINUOUS
  0
LAYER
  2
141
 70
    64
 62
     7
  6
CONTINUOUS
  0
LAYER
  2
142
 70
    64
 62
     7
  6
CONTINUOUS
  0
LAYER
  2
143
 70
    64
 62
     7
  6
CONTINUOUS
  0
LAYER
  2
144
 70
    64
 62
     7
  6
CONTINUOUS
  0
LAYER
  2
145
 70
    64
 62
     7
  6
CONTINUOUS
  0
LAYER
  2
146
 70
    64
 62
     7
  6
CONTINUOUS
  0
LAYER
  2
147
 70
    64
 62
     7
  6
CONTINUOUS
  0
LAYER
  2
148
 70
    64
 62
     7
  6
CONTINUOUS
  0
LAYER
  2
149
 70
    64
 62
     7
  6
CONTINUOUS
  0
LAYER
  2
150
 70
    64
 62
     7
  6
CONTINUOUS
  0
LAYER
  2
151
 70
    64
 62
     7
  6
CONTINUOUS
  0
LAYER
  2
152
 70
    64
 62
     7
  6
CONTINUOUS
  0
LAYER
  2
153
 70
    64
 62
     7
  6
CONTINUOUS
  0
LAYER
  2
154
 70
    64
 62
     7
  6
CONTINUOUS
  0
LAYER
  2
155
 70
    64
 62
     7
  6
CONTINUOUS
  0
LAYER
  2
156
 70
    64
 62
     7
  6
CONTINUOUS
  0
LAYER
  2
157
 70
    64
 62
     7
  6
CONTINUOUS
  0
LAYER
  2
158
 70
    64
 62
     7
  6
CONTINUOUS
  0
LAYER
  2
159
 70
    64
 62
     7
  6
CONTINUOUS
  0
LAYER
  2
160
 70
    64
 62
     7
  6
CONTINUOUS
  0
LAYER
  2
161
 70
    64
 62
     7
  6
CONTINUOUS
  0
LAYER
  2
162
 70
    64
 62
     7
  6
CONTINUOUS
  0
LAYER
  2
163
 70
    64
 62
     7
  6
CONTINUOUS
  0
LAYER
  2
164
 70
    64
 62
     7
  6
CONTINUOUS
  0
LAYER
  2
165
 70
    64
 62
     7
  6
CONTINUOUS
  0
LAYER
  2
166
 70
    64
 62
     7
  6
CONTINUOUS
  0
LAYER
  2
167
 70
    64
 62
     7
  6
CONTINUOUS
  0
LAYER
  2
168
 70
    64
 62
     7
  6
CONTINUOUS
  0
LAYER
  2
169
 70
    64
 62
     7
  6
CONTINUOUS
  0
LAYER
  2
170
 70
    64
 62
     7
  6
CONTINUOUS
  0
LAYER
  2
171
 70
    64
 62
     7
  6
CONTINUOUS
  0
LAYER
  2
172
 70
    64
 62
     7
  6
CONTINUOUS
  0
LAYER
  2
173
 70
    64
 62
     7
  6
CONTINUOUS
  0
LAYER
  2
174
 70
    64
 62
     7
  6
CONTINUOUS
  0
LAYER
  2
175
 70
    64
 62
     7
  6
CONTINUOUS
  0
LAYER
  2
176
 70
    64
 62
     7
  6
CONTINUOUS
  0
LAYER
  2
177
 70
    64
 62
     7
  6
CONTINUOUS
  0
LAYER
  2
178
 70
    64
 62
     7
  6
CONTINUOUS
  0
LAYER
  2
179
 70
    64
 62
     7
  6
CONTINUOUS
  0
LAYER
  2
180
 70
    64
 62
     7
  6
CONTINUOUS
  0
LAYER
  2
181
 70
    64
 62
     7
  6
CONTINUOUS
  0
LAYER
  2
182
 70
    64
 62
     7
  6
CONTINUOUS
  0
LAYER
  2
183
 70
    64
 62
     7
  6
CONTINUOUS
  0
LAYER
  2
184
 70
    64
 62
     7
  6
CONTINUOUS
  0
LAYER
  2
185
 70
    64
 62
     7
  6
CONTINUOUS
  0
LAYER
  2
186
 70
    64
 62
     7
  6
CONTINUOUS
  0
LAYER
  2
187
 70
    64
 62
     7
  6
CONTINUOUS
  0
LAYER
  2
188
 70
    64
 62
     7
  6
CONTINUOUS
  0
LAYER
  2
189
 70
    64
 62
     7
  6
CONTINUOUS
  0
LAYER
  2
190
 70
    64
 62
     7
  6
CONTINUOUS
  0
LAYER
  2
191
 70
    64
 62
     7
  6
CONTINUOUS
  0
LAYER
  2
192
 70
    64
 62
     7
  6
CONTINUOUS
  0
LAYER
  2
193
 70
    64
 62
     7
  6
CONTINUOUS
  0
LAYER
  2
194
 70
    64
 62
     7
  6
CONTINUOUS
  0
LAYER
  2
195
 70
    64
 62
     7
  6
CONTINUOUS
  0
LAYER
  2
196
 70
    64
 62
     7
  6
CONTINUOUS
  0
LAYER
  2
197
 70
    64
 62
     7
  6
CONTINUOUS
  0
LAYER
  2
198
 70
    64
 62
     7
  6
CONTINUOUS
  0
LAYER
  2
199
 70
    64
 62
     7
  6
CONTINUOUS
  0
LAYER
  2
200
 70
    64
 62
     7
  6
CONTINUOUS
  0
LAYER
  2
201
 70
    64
 62
     7
  6
CONTINUOUS
  0
LAYER
  2
202
 70
    64
 62
     7
  6
CONTINUOUS
  0
LAYER
  2
203
 70
    64
 62
     7
  6
CONTINUOUS
  0
LAYER
  2
204
 70
    64
 62
     7
  6
CONTINUOUS
  0
LAYER
  2
205
 70
    64
 62
     7
  6
CONTINUOUS
  0
LAYER
  2
206
 70
    64
 62
     7
  6
CONTINUOUS
  0
LAYER
  2
207
 70
    64
 62
     7
  6
CONTINUOUS
  0
LAYER
  2
208
 70
    64
 62
     7
  6
CONTINUOUS
  0
LAYER
  2
209
 70
    64
 62
     7
  6
CONTINUOUS
  0
LAYER
  2
210
 70
    64
 62
     7
  6
CONTINUOUS
  0
LAYER
  2
211
 70
    64
 62
     7
  6
CONTINUOUS
  0
LAYER
  2
212
 70
    64
 62
     7
  6
CONTINUOUS
  0
LAYER
  2
213
 70
    64
 62
     7
  6
CONTINUOUS
  0
LAYER
  2
214
 70
    64
 62
     7
  6
CONTINUOUS
  0
LAYER
  2
215
 70
    64
 62
     7
  6
CONTINUOUS
  0
LAYER
  2
216
 70
    64
 62
     7
  6
CONTINUOUS
  0
LAYER
  2
217
 70
    64
 62
     7
  6
CONTINUOUS
  0
LAYER
  2
218
 70
    64
 62
     7
  6
CONTINUOUS
  0
LAYER
  2
219
 70
    64
 62
     7
  6
CONTINUOUS
  0
LAYER
  2
220
 70
    64
 62
     7
  6
CONTINUOUS
  0
LAYER
  2
221
 70
    64
 62
     7
  6
CONTINUOUS
  0
LAYER
  2
222
 70
    64
 62
     7
  6
CONTINUOUS
  0
LAYER
  2
223
 70
    64
 62
     7
  6
CONTINUOUS
  0
LAYER
  2
224
 70
    64
 62
     7
  6
CONTINUOUS
  0
LAYER
  2
225
 70
    64
 62
     7
  6
CONTINUOUS
  0
LAYER
  2
226
 70
    64
 62
     7
  6
CONTINUOUS
  0
LAYER
  2
227
 70
    64
 62
     7
  6
CONTINUOUS
  0
LAYER
  2
228
 70
    64
 62
     7
  6
CONTINUOUS
  0
LAYER
  2
229
 70
    64
 62
     7
  6
CONTINUOUS
  0
LAYER
  2
230
 70
    64
 62
     7
  6
CONTINUOUS
  0
LAYER
  2
231
 70
    64
 62
     7
  6
CONTINUOUS
  0
LAYER
  2
232
 70
    64
 62
     7
  6
CONTINUOUS
  0
LAYER
  2
233
 70
    64
 62
     7
  6
CONTINUOUS
  0
LAYER
  2
234
 70
    64
 62
     7
  6
CONTINUOUS
  0
LAYER
  2
235
 70
    64
 62
     7
  6
CONTINUOUS
  0
LAYER
  2
236
 70
    64
 62
     7
  6
CONTINUOUS
  0
LAYER
  2
237
 70
    64
 62
     7
  6
CONTINUOUS
  0
LAYER
  2
238
 70
    64
 62
     7
  6
CONTINUOUS
  0
LAYER
  2
239
 70
    64
 62
     7
  6
CONTINUOUS
  0
LAYER
  2
240
 70
    64
 62
     7
  6
CONTINUOUS
  0
LAYER
  2
241
 70
    64
 62
     7
  6
CONTINUOUS
  0
LAYER
  2
242
 70
    64
 62
     7
  6
CONTINUOUS
  0
LAYER
  2
243
 70
    64
 62
     7
  6
CONTINUOUS
  0
LAYER
  2
244
 70
    64
 62
     7
  6
CONTINUOUS
  0
LAYER
  2
245
 70
    64
 62
     7
  6
CONTINUOUS
  0
LAYER
  2
246
 70
    64
 62
     7
  6
CONTINUOUS
  0
LAYER
  2
247
 70
    64
 62
     7
  6
CONTINUOUS
  0
LAYER
  2
248
 70
    64
 62
     7
  6
CONTINUOUS
  0
LAYER
  2
249
 70
    64
 62
     7
  6
CONTINUOUS
  0
LAYER
  2
250
 70
    64
 62
     7
  6
CONTINUOUS
  0
LAYER
  2
251
 70
    64
 62
     7
  6
CONTINUOUS
  0
LAYER
  2
252
 70
    64
 62
     7
  6
CONTINUOUS
  0
LAYER
  2
253
 70
    64
 62
     7
  6
CONTINUOUS
  0
LAYER
  2
254
 70
    64
 62
     7
  6
CONTINUOUS
  0
LAYER
  2
255
 70
    64
 62
     7
  6
CONTINUOUS
  0
ENDTAB
  0
TABLE
  2
STYLE
 70
     2
  0
STYLE
  2
STANDARD
 70
    64
 40
0.0
 41
1.0
 50
0.0
 71
     0
 42
3.000000
  3
TXT
  4
BIGFONT
  0
ENDTAB
  0
ENDSEC
  0
SECTION
  2
ENTITIES
  0
LINE
  8
0
  6
CONTINUOUS
 62
     3
 10
-17.763253269999957
 20
 53.53168927071043
 11
-31.904535309999957
 21
 29.03168927071043
  0
LINE
  8
0
  6
CONTINUOUS
 62
     3
 10
-79.532016599999963
 20
 53.53168927071043
 11
-65.390734559999956
 21
 29.03168927071043
  0
CIRCLE
  8
0
  6
CONTINUOUS
 62
     3
 10
-48.647634939999961
 20
 55.031387050710435
 40
 22.5
  0
CIRCLE
  8
0
  6
CONTINUOUS
 62
     3
 10
-48.647634939999961
 20
 55.031387050710435
 40
 15
  0
LINE
  8
0
  6
CONTINUOUS
 62
     3
 10
-48.647634939999961
 20
 62.031387050710435
 11
-44.647634939999961
 21
 55.031387050710435
  0
LINE
  8
0
  6
CONTINUOUS
 62
     3
 10
-44.647634939999961
 20
 55.031387050710435
 11
-48.647634939999961
 21
 48.031387050710435
  0
LINE
  8
0
  6
CONTINUOUS
 62
     3
 10
-48.647634939999961
 20
 48.031387050710435
 11
-52.647634939999961
 21
 55.031387050710435
  0
LINE
  8
0
  6
CONTINUOUS
 62
     3
 10
-52.647634939999961
 20
 55.031387050710435
 11
-48.647634939999961
 21
 62.031387050710435
  0
LINE
  8
0
  6
CONTINUOUS
 62
     3
 10
-48.647634939999961
 20
 63.531387050710435
 11
-43.647634939999961
 21
 55.031387050710435
  0
LINE
  8
0
  6
CONTINUOUS
 62
     3
 10
-43.647634939999961
 20
 55.031387050710435
 11
-48.647634939999961
 21
 46.531387050710435
  0
LINE
  8
0
  6
CONTINUOUS
 62
     3
 10
-48.712050109999964
 20
 46.729969250710425
 11
-53.647634939999961
 21
 55.031387050710435
  0
LINE
  8
0
  6
CONTINUOUS
 62
     3
 10
-53.647634939999961
 20
 55.031387050710435
 11
-48.647634939999961
 21
 63.531387050710435
  0
LINE
  8
0
  6
CONTINUOUS
 62
     3
 10
-80.397634939999961
 20
 13.456769540710432
 11
-80.397634939999961
 21
-6.5432304592895676
  0
LINE
  8
0
  6
CONTINUOUS
 62
     3
 10
-62.792483879999963
 20
 27.531387050710435
 11
-34.502785989999957
 21
 27.531387050710435
  0
LINE
  8
0
  6
CONTINUOUS
 62
     3
 10
-78.397634939999961
 20
 15.456769540710425
 11
-18.897634939999961
 21
 15.456769540710425
  0
LINE
  8
0
  6
CONTINUOUS
 62
     3
 10
-80.397634939999961
 20
-6.5432304592895676
 11
-16.897634939999961
 21
-6.5432304592895676
  0
LINE
  8
0
  6
CONTINUOUS
 62
     3
 10
-16.897634939999961
 20
 13.456769540710432
 11
-16.897634939999961
 21
-6.5432304592895676
  0
ARC
  8
0
  6
CONTINUOUS
 62
     3
 10
-18.897634939999961
 20
 13.456769540710432
 40
 2
 50
 0
 51
 90.000001535234716
  0
ARC
  8
0
  6
CONTINUOUS
 62
     3
 10
-78.397634939999961
 20
 13.456769540710432
 40
 2
 50
 90.000001535234716
 51
-180.00000307046864
  0
LINE
  8
0
  6
CONTINUOUS
 62
     3
 10
-71.147634939999961
 20
-42.543230459289568
 11
-71.147634939999961
 21
-5.5432304592895676
  0
ARC
  8
0
  6
CONTINUOUS
 62
     3
 10
-68.147634939999961
 20
-42.543230459289568
 40
 3
 50
-180.00000307046864
 51
-90.00000153523392
  0
ARC
  8
0
  6
CONTINUOUS
 62
     3
 10
-29.147634939999961
 20
-42.543230459289568
 40
 3
 50
-90.00000153523392
 51
 0
  0
LINE
  8
0
  6
CONTINUOUS
 62
     3
 10
-26.147634939999961
 20
-5.5432304592895676
 11
-26.147634939999961
 21
-42.875869349289573
  0
LINE
  8
0
  6
CONTINUOUS
 62
     3
 10
-29.147634939999961
 20
-45.543230459289568
 11
-68.460503269999961
 21
-45.543230459289568
  0
LINE
  8
0
  6
CONTINUOUS
 62
     3
 10
-34.647634939999961
 20
-75.543230459289575
 11
-62.647634939999961
 21
-75.543230459289575
  0
LINE
  8
0
  6
CONTINUOUS
 62
     3
 10
-34.647634939999961
 20
-75.543230459289575
 11
-34.647634939999961
 21
-83.54323045928956
  0
LINE
  8
0
  6
CONTINUOUS
 62
     3
 10
-62.647634939999961
 20
-75.543230459289575
 11
-62.647634939999961
 21
-83.54323045928956
  0
LINE
  8
0
  6
CONTINUOUS
 62
     3
 10
-62.647634939999961
 20
-83.54323045928956
 11
-34.647634939999961
 21
-83.54323045928956
  0
LINE
  8
0
  6
CONTINUOUS
 62
     3
 10
 94.459277220000047
 20
 13.456769540710432
 11
 94.459277220000047
 21
-6.5432304592895676
  0
LINE
  8
0
  6
CONTINUOUS
 62
     3
 10
 94.459277220000047
 20
-6.5432304592895676
 11
 30.959277220000043
 21
-6.5432304592895676
  0
LINE
  8
0
  6
CONTINUOUS
 62
     3
 10
 30.959277220000043
 20
 13.456769540710432
 11
 30.959277220000043
 21
-6.5432304592895676
  0
ARC
  8
0
  6
CONTINUOUS
 62
     3
 10
 32.95927722000004
 20
 13.456769540710432
 40
 2
 50
 90.000001535234716
 51
-180.00000307046864
  0
ARC
  8
0
  6
CONTINUOUS
 62
     3
 10
 92.459277220000047
 20
 13.456769540710432
 40
 2
 50
 0
 51
 90.000001535235526
  0
ARC
  8
0
  6
CONTINUOUS
 62
     3
 10
-48.647634939999961
 20
-24.543230459289571
 40
 15
 50
 25.944480212565175
 51
 154.05552285790424
  0
ARC
  8
0
  6
CONTINUOUS
 62
     3
 10
-48.647634939999961
 20
-24.543230459289571
 40
 15
 50
-180.00000307046864
 51
 0
  0
LINE
  8
0
  6
CONTINUOUS
 62
     3
 10
-33.647634939999961
 20
-5.5432304592895676
 11
-33.647634939999961
 21
-24.543230459289571
  0
LINE
  8
0
  6
CONTINUOUS
 62
     3
 10
-63.647634939999961
 20
-5.5432304592895676
 11
-63.647634939999961
 21
-24.543230459289571
  0
ARC
  8
0
  6
CONTINUOUS
 62
     3
 10
-29.647634939999961
 20
 13.456769540710432
 40
 2
 50
 90.000001535234716
 51
-180.00000307046864
  0
ARC
  8
0
  6
CONTINUOUS
 62
     3
 10
-33.647634939999961
 20
 13.456769540710432
 40
 2
 50
 0
 51
 90.000001535234716
  0
ARC
  8
0
  6
CONTINUOUS
 62
     3
 10
-63.647634939999961
 20
 13.456769540710432
 40
 2
 50
 90.000001535234716
 51
-180.00000307046864
  0
ARC
  8
0
  6
CONTINUOUS
 62
     3
 10
-67.647634939999961
 20
 13.456769540710432
 40
 2
 50
 0
 51
 90.000001535234716
  0
LINE
  8
0
  6
CONTINUOUS
 62
     3
 10
-65.647634939999961
 20
 13.456769540710432
 11
-65.647634939999961
 21
-6.5432304592895676
  0
LINE
  8
0
  6
CONTINUOUS
 62
     3
 10
-31.647634939999961
 20
 13.456769540710432
 11
-31.647634939999961
 21
-6.5432304592895676
  0
ARC
  8
0
  6
CONTINUOUS
 62
     3
 10
-20.361503949999957
 20
 55.031387050710435
 40
 3
 50
-29.993335831630482
 51
 29.993335831632049
  0
ARC
  8
0
  6
CONTINUOUS
 62
     3
 10
-34.502785989999957
 20
 30.531387050710435
 40
 3
 50
-90.00000153523392
 51
-29.993335831630482
  0
ARC
  8
0
  6
CONTINUOUS
 62
     3
 10
-62.792483879999963
 20
 30.531387050710435
 40
 3
 50
-150.00666723883739
 51
-90.00000153523392
  0
ARC
  8
0
  6
CONTINUOUS
 62
     3
 10
-76.933765919999956
 20
 55.031387050710435
 40
 3
 50
 150.00666723883819
 51
-150.00666723883739
  0
LINE
  8
0
  6
CONTINUOUS
 62
     3
 10
-79.532016599999963
 20
 53.53168927071043
 11
-65.390734559999956
 21
 29.03168927071043
  0
LINE
  8
0
  6
CONTINUOUS
 62
     3
 10
-62.792483879999963
 20
 27.531387050710435
 11
-34.502785989999957
 21
 27.531387050710435
  0
LINE
  8
0
  6
CONTINUOUS
 62
     3
 10
-17.763253269999957
 20
 53.53168927071043
 11
-31.904535309999957
 21
 29.03168927071043
  0
LINE
  8
0
  6
CONTINUOUS
 62
     3
 10
-62.792483879999963
 20
 82.531387050710421
 11
-34.502785989999957
 21
 82.531387050710421
  0
ARC
  8
0
  6
CONTINUOUS
 62
     3
 10
-34.502785989999957
 20
 79.53138705071045
 40
 3
 50
 29.993335831631217
 51
 90.000001535234716
  0
ARC
  8
0
  6
CONTINUOUS
 62
     3
 10
-62.792483879999963
 20
 79.53138705071045
 40
 3
 50
 90.000001535234716
 51
 150.00666723883819
  0
LINE
  8
0
  6
CONTINUOUS
 62
     3
 10
-62.792483879999963
 20
 82.531387050710421
 11
-34.502785989999957
 21
 82.531387050710421
  0
LINE
  8
0
  6
CONTINUOUS
 62
     3
 10
-31.904535309999957
 20
 81.031084830710441
 11
-17.763253269999957
 21
 56.531084830710427
  0
LINE
  8
0
  6
CONTINUOUS
 62
     3
 10
-65.390734559999956
 20
 81.031084830710441
 11
-79.532016599999963
 21
 56.531084830710427
  0
LINE
  8
0
  6
CONTINUOUS
 62
     3
 10
-65.390734559999956
 20
 81.031084830710441
 11
-79.532016599999963
 21
 56.531084830710427
  0
LINE
  8
0
  6
CONTINUOUS
 62
     3
 10
-31.904535309999957
 20
 81.031084830710441
 11
-17.763253269999957
 21
 56.531084830710427
  0
LINE
  8
0
  6
CONTINUOUS
 62
     3
 10
 62.560661630000041
 20
 14.956769540710425
 11
 62.560661630000041
 21
-5.5432304592895676
  0
ARC
  8
0
  6
CONTINUOUS
 62
     3
 10
 64.060661630000041
 20
 13.956769540710432
 40
 1.5
 50
 90.000001535234716
 51
-180.00000307046864
  0
ARC
  8
0
  6
CONTINUOUS
 62
     3
 10
 61.060661630000041
 20
 13.956769540710432
 40
 1.5
 50
 0
 51
 90.000001535234716
  0
LINE
  8
0
  6
CONTINUOUS
 62
     3
 10
 92.459277220000047
 20
 15.456769540710425
 11
 32.95927722000004
 21
 15.456769540710425
  0
LINE
  8
0
  6
CONTINUOUS
 62
     3
 10
-55.57583493999995
 20
-75.543230459289575
 11
-55.57583493999995
 21
-83.54323045928956
  0
LINE
  8
0
  6
CONTINUOUS
 62
     3
 10
-41.719434939999957
 20
-75.543230459289575
 11
-41.719434939999957
 21
-83.54323045928956
  0
ARC
  8
0
  6
CONTINUOUS
 62
     3
 10
-27.647634939999961
 20
-50.543230459289568
 40
 2
 50
-64.942385687797056
 51
 80.472717992717548
  0
ARC
  8
0
  6
CONTINUOUS
 62
     3
 10
-33.147634939999961
 20
-47.043230459289568
 40
 1.5
 50
 90.000001535234716
 51
-99.527285077751841
  0
ARC
  8
0
  6
CONTINUOUS
 62
     3
 10
-27.647634939999961
 20
-62.043230459289568
 40
 2
 50
-64.942385687797056
 51
 64.94238568779862
  0
ARC
  8
0
  6
CONTINUOUS
 62
     3
 10
-27.647634939999961
 20
-73.543230459289575
 40
 2
 50
-74.810714536132593
 51
 64.94238568779862
  0
ARC
  8
0
  6
CONTINUOUS
 62
     3
 10
-64.147634939999961
 20
-47.043230459289568
 40
 1.5
 50
-80.472717992715985
 51
 90.000001535235526
  0
ARC
  8
0
  6
CONTINUOUS
 62
     3
 10
-69.647634939999961
 20
-50.543230459289568
 40
 2
 50
 99.527285077752651
 51
-115.05761738267084
  0
ARC
  8
0
  6
CONTINUOUS
 62
     3
 10
-69.647634939999961
 20
-62.043230459289568
 40
 2
 50
 115.05761738267161
 51
-115.05761738267084
  0
ARC
  8
0
  6
CONTINUOUS
 62
     3
 10
-69.647634939999961
 20
-73.543230459289575
 40
 2
 50
 115.05761738267161
 51
-105.18928853433528
  0
ARC
  8
0
  6
CONTINUOUS
 62
     3
 10
 27.591609380000044
 20
-23.863460779289571
 40
 20
 50
-51.431297647322722
 51
-3.1878157143775216
  0
ARC
  8
0
  6
CONTINUOUS
 62
     3
 10
 82.060661630000041
 20
-42.543230459289568
 40
 3
 50
-90.00000153523392
 51
 0
  0
ARC
  8
0
  6
CONTINUOUS
 62
     3
 10
 43.060661630000041
 20
-42.543230459289568
 40
 3
 50
-180.00000307046864
 51
-90.00000153523392
  0
LINE
  8
0
  6
CONTINUOUS
 62
     3
 10
 40.060661630000041
 20
-39.500683549289569
 11
 40.060661630000041
 21
-42.543230459289568
  0
LINE
  8
0
  6
CONTINUOUS
 62
     3
 10
 85.060661630000041
 20
-39.500683549289569
 11
 85.060661630000041
 21
-42.543230459289568
  0
LINE
  8
0
  6
CONTINUOUS
 62
     3
 10
 82.060661630000041
 20
-45.543230459289568
 11
 47.060661630000041
 21
-45.543230459289568
  0
LINE
  8
0
  6
CONTINUOUS
 62
     3
 10
 47.060661630000041
 20
-45.543230459289568
 11
 43.060661630000041
 21
-45.543230459289568
  0
ARC
  8
0
  6
CONTINUOUS
 62
     3
 10
 97.529713880000045
 20
-23.863460779289571
 40
 20
 50
-176.81218735609039
 51
-128.56870542314516
  0
LINE
  8
0
  6
CONTINUOUS
 62
     3
 10
-64.647634939999961
 20
-49.293230459289568
 11
-32.647634939999961
 21
-49.293230459289568
  0
LINE
  8
0
  6
CONTINUOUS
 62
     3
 10
-64.647634939999961
 20
-51.793230459289568
 11
-32.647634939999961
 21
-51.793230459289568
  0
LINE
  8
0
  6
CONTINUOUS
 62
     3
 10
-64.647634939999961
 20
-63.293230459289568
 11
-32.647634939999961
 21
-63.293230459289568
  0
LINE
  8
0
  6
CONTINUOUS
 62
     3
 10
-64.647634939999961
 20
-60.793230459289568
 11
-32.647634939999961
 21
-60.793230459289568
  0
LINE
  8
0
  6
CONTINUOUS
 62
     3
 10
-64.647634939999961
 20
-74.793230459289575
 11
-32.647634939999961
 21
-74.793230459289575
  0
LINE
  8
0
  6
CONTINUOUS
 62
     3
 10
-64.647634939999961
 20
-72.293230459289575
 11
-32.647634939999961
 21
-72.293230459289575
  0
LINE
  8
0
  6
CONTINUOUS
 62
     3
 10
 47.560661630000041
 20
-5.5432304592895676
 11
 47.560661630000041
 21
-24.975644349289571
  0
LINE
  8
0
  6
CONTINUOUS
 62
     3
 10
 77.560661630000041
 20
-5.5432304592895676
 11
 77.560661630000041
 21
-24.975644349289571
  0
LINE
  8
0
  6
CONTINUOUS
 62
     3
 10
-33.39591079999996
 20
-48.522540799289573
 11
-27.31660044999996
 21
-48.570816659289569
  0
LINE
  8
0
  6
CONTINUOUS
 62
     3
 10
-69.97866941999996
 20
-48.570816659289569
 11
-63.89935906999996
 21
-48.522540799289573
  0
ARC
  8
0
  6
CONTINUOUS
 62
     3
 10
-65.658069749999953
 20
-56.293230459289568
 40
 3
 50
-68.043590620697898
 51
 90.000001535235526
  0
ARC
  8
0
  6
CONTINUOUS
 62
     3
 10
-31.63720011999996
 20
-56.293230459289568
 40
 3
 50
 90.000001535234716
 51
-111.95641244976999
  0
LINE
  8
0
  6
CONTINUOUS
 62
     3
 10
-70.494693759999961
 20
-52.354995159289572
 11
-65.658069749999953
 21
-53.293230459289568
  0
LINE
  8
0
  6
CONTINUOUS
 62
     3
 10
-31.63720011999996
 20
-53.293230459289568
 11
-26.800576109999959
 21
-52.354995159289572
  0
LINE
  8
0
  6
CONTINUOUS
 62
     3
 10
-70.494693759999961
 20
-60.231465749289569
 11
-64.536366439999952
 21
-59.075636189289568
  0
LINE
  8
0
  6
CONTINUOUS
 62
     3
 10
-32.758903429999954
 20
-59.075636189289568
 11
-26.800576109999959
 21
-60.231465749289569
  0
ARC
  8
0
  6
CONTINUOUS
 62
     3
 10
-31.63720011999996
 20
-67.793230459289575
 40
 3
 50
 111.95641244977075
 51
-111.95641244976999
  0
ARC
  8
0
  6
CONTINUOUS
 62
     3
 10
-65.658069749999953
 20
-67.793230459289575
 40
 3
 50
-68.043590620697898
 51
 68.043590620699504
  0
LINE
  8
0
  6
CONTINUOUS
 62
     3
 10
-70.494693759999961
 20
-63.854995159289572
 11
-64.536366439999952
 21
-65.010824719289573
  0
LINE
  8
0
  6
CONTINUOUS
 62
     3
 10
-32.758903429999954
 20
-65.010824719289573
 11
-26.800576109999959
 21
-63.854995159289572
  0
LINE
  8
0
  6
CONTINUOUS
 62
     3
 10
-70.494693759999961
 20
-71.731465749289569
 11
-64.536366439999952
 21
-70.575636189289568
  0
LINE
  8
0
  6
CONTINUOUS
 62
     3
 10
-32.758903429999954
 20
-70.575636189289568
 11
-26.800576109999959
 21
-71.731465749289569
  0
LINE
  8
0
  6
CONTINUOUS
 62
     3
 10
-70.171652399999957
 20
-75.473361459289578
 11
-62.647634939999961
 21
-75.543230459289575
  0
LINE
  8
0
  6
CONTINUOUS
 62
     3
 10
-34.647634939999961
 20
-75.543230459289575
 11
-27.123617469999957
 21
-75.473361459289578
  0
LINE
  8
0
  6
CONTINUOUS
 62
     3
 10
 76.560661630000041
 20
-75.543230459289575
 11
 48.560661630000041
 21
-75.543230459289575
  0
LINE
  8
0
  6
CONTINUOUS
 62
     3
 10
 76.560661630000041
 20
-75.543230459289575
 11
 76.560661630000041
 21
-83.54323045928956
  0
LINE
  8
0
  6
CONTINUOUS
 62
     3
 10
 48.560661630000041
 20
-75.543230459289575
 11
 48.560661630000041
 21
-83.54323045928956
  0
LINE
  8
0
  6
CONTINUOUS
 62
     3
 10
 48.560661630000041
 20
-83.54323045928956
 11
 76.560661630000041
 21
-83.54323045928956
  0
ARC
  8
0
  6
CONTINUOUS
 62
     3
 10
 83.060661630000041
 20
-50.543230459289568
 40
 2
 50
-64.942385687797056
 51
 81.225019275550423
  0
ARC
  8
0
  6
CONTINUOUS
 62
     3
 10
 83.060661630000041
 20
-62.043230459289568
 40
 2
 50
-64.942385687797056
 51
 64.94238568779862
  0
ARC
  8
0
  6
CONTINUOUS
 62
     3
 10
 83.060661630000041
 20
-73.543230459289575
 40
 2
 50
-74.810714536132593
 51
 64.94238568779862
  0
ARC
  8
0
  6
CONTINUOUS
 62
     3
 10
 42.060661630000041
 20
-50.543230459289568
 40
 2
 50
 99.527285077752651
 51
-115.05761738267084
  0
ARC
  8
0
  6
CONTINUOUS
 62
     3
 10
 42.060661630000041
 20
-62.043230459289568
 40
 2
 50
 115.05761738267161
 51
-115.05761738267084
  0
ARC
  8
0
  6
CONTINUOUS
 62
     3
 10
 42.060661630000041
 20
-73.543230459289575
 40
 2
 50
 115.05761738267161
 51
-104.6540737752055
  0
LINE
  8
0
  6
CONTINUOUS
 62
     3
 10
 46.560661630000041
 20
-49.293230459289568
 11
 78.560661630000041
 21
-49.293230459289568
  0
LINE
  8
0
  6
CONTINUOUS
 62
     3
 10
 46.560661630000041
 20
-51.793230459289568
 11
 78.560661630000041
 21
-51.793230459289568
  0
LINE
  8
0
  6
CONTINUOUS
 62
     3
 10
 46.560661630000041
 20
-63.293230459289568
 11
 78.560661630000041
 21
-63.293230459289568
  0
LINE
  8
0
  6
CONTINUOUS
 62
     3
 10
 46.560661630000041
 20
-60.793230459289568
 11
 78.560661630000041
 21
-60.793230459289568
  0
LINE
  8
0
  6
CONTINUOUS
 62
     3
 10
 46.560661630000041
 20
-74.793230459289575
 11
 78.560661630000041
 21
-74.793230459289575
  0
LINE
  8
0
  6
CONTINUOUS
 62
     3
 10
 46.560661630000041
 20
-72.293230459289575
 11
 78.560661630000041
 21
-72.293230459289575
  0
LINE
  8
0
  6
CONTINUOUS
 62
     3
 10
 77.812385770000049
 20
-48.522540799289573
 11
 83.365770260000033
 21
-48.566640279289572
  0
LINE
  8
0
  6
CONTINUOUS
 62
     3
 10
 41.755553000000042
 20
-48.566640279289572
 11
 47.308937490000048
 21
-48.522540799289573
  0
ARC
  8
0
  6
CONTINUOUS
 62
     3
 10
 45.550226820000042
 20
-56.293230459289568
 40
 3
 50
-68.043590620697898
 51
 85.597215100132061
  0
ARC
  8
0
  6
CONTINUOUS
 62
     3
 10
 79.571096440000048
 20
-56.293230459289568
 40
 3
 50
 97.216105058328182
 51
-111.95641244976999
  0
LINE
  8
0
  6
CONTINUOUS
 62
     3
 10
 78.449393140000041
 20
-59.075636189289568
 11
 84.407720450000042
 21
-60.231465749289569
  0
ARC
  8
0
  6
CONTINUOUS
 62
     3
 10
 79.571096440000048
 20
-67.793230459289575
 40
 3
 50
 111.95641244977075
 51
-111.95641244976999
  0
ARC
  8
0
  6
CONTINUOUS
 62
     3
 10
 45.550226820000042
 20
-67.793230459289575
 40
 3
 50
-68.043590620697898
 51
 68.043590620699504
  0
LINE
  8
0
  6
CONTINUOUS
 62
     3
 10
 78.449393140000041
 20
-65.010824719289573
 11
 84.407720450000042
 21
-63.854995159289572
  0
LINE
  8
0
  6
CONTINUOUS
 62
     3
 10
 41.554696620000044
 20
-75.478172159289571
 11
 48.560661630000041
 21
-75.543230459289575
  0
LINE
  8
0
  6
CONTINUOUS
 62
     3
 10
 76.560661630000041
 20
-75.543230459289575
 11
 83.584722210000052
 21
-75.478004119289565
  0
ARC
  8
0
  6
CONTINUOUS
 62
     3
 10
 78.060661630000041
 20
-47.043230459289568
 40
 1.5
 50
 90.000001535234716
 51
-99.527285077751841
  0
ARC
  8
0
  6
CONTINUOUS
 62
     3
 10
 47.060661630000041
 20
-47.043230459289568
 40
 1.5
 50
-80.472717992715985
 51
 90.000001535235526
  0
LINE
  8
0
  6
CONTINUOUS
 62
     3
 10
 62.560661630000041
 20
-75.543230459289575
 11
 62.560661630000041
 21
-83.54323045928956
  0
LINE
  8
0
  6
CONTINUOUS
 62
     3
 10
 41.21360281000004
 20
-52.354995159289572
 11
 45.817389680000048
 21
-53.30972747928957
  0
LINE
  8
0
  6
CONTINUOUS
 62
     3
 10
 41.21360281000004
 20
-60.231465749289569
 11
 46.671930120000042
 21
-59.075636189289568
  0
LINE
  8
0
  6
CONTINUOUS
 62
     3
 10
 41.21360281000004
 20
-63.854995159289572
 11
 46.671930120000042
 21
-65.010824719289573
  0
LINE
  8
0
  6
CONTINUOUS
 62
     3
 10
 41.21360281000004
 20
-71.731465749289569
 11
 46.671930120000042
 21
-70.575636189289568
  0
LINE
  8
0
  6
CONTINUOUS
 62
     3
 10
 83.907720450000042
 20
-52.354995159289572
 11
 79.190145710000053
 21
-53.317831899289573
  0
LINE
  8
0
  6
CONTINUOUS
 62
     3
 10
 83.907720450000042
 20
-71.731465749289569
 11
 78.449393140000041
 21
-70.575636189289568
  0
LINE
  8
0
  6
DOT
 62
     3
 10
-37.467295049999954
 20
-34.543230459289568
 11
-31.647634939999961
 21
-34.543230459289568
  0
LINE
  8
0
  6
DOT
 62
     3
 10
-65.647634939999961
 20
-34.543230459289568
 11
-59.827974819999952
 21
-34.543230459289568
  0
LINE
  8
0
  6
DOT
 62
     3
 10
-71.147634939999961
 20
 12.456769540710432
 11
-26.147634939999961
 21
 12.456769540710432
  0
LINE
  8
0
  6
DOT
 62
     3
 10
-26.147634939999961
 20
 12.456769540710432
 11
-26.147634939999961
 21
-5.5432304592895676
  0
LINE
  8
0
  6
DOT
 62
     3
 10
-71.147634939999961
 20
 12.456769540710432
 11
-71.147634939999961
 21
-5.5432304592895676
  0
LINE
  8
0
  6
DOT
 62
     3
 10
-27.647634939999961
 20
 12.456769540710432
 11
-27.647634939999961
 21
-5.5432304592895676
  0
LINE
  8
0
  6
DOT
 62
     3
 10
-69.647634939999961
 20
 12.456769540710432
 11
-69.647634939999961
 21
-5.5432304592895676
  0
LINE
  8
0
  6
DOT
 62
     3
 10
 85.209277220000047
 20
 12.456769540710432
 11
 40.209277220000047
 21
 12.456769540710432
  0
LINE
  8
0
  6
DOT
 62
     3
 10
 40.209277220000047
 20
 12.456769540710432
 11
 40.209277220000047
 21
-5.5432304592895676
  0
LINE
  8
0
  6
DOT
 62
     3
 10
 85.209277220000047
 20
 12.456769540710432
 11
 85.209277220000047
 21
-5.5432304592895676
  0
LINE
  8
0
  6
DOT
 62
     3
 10
 41.709277220000047
 20
 12.456769540710432
 11
 41.709277220000047
 21
-5.5432304592895676
  0
LINE
  8
0
  6
DOT
 62
     3
 10
 83.709277220000047
 20
 12.456769540710432
 11
 83.709277220000047
 21
-5.5432304592895676
  0
LINE
  8
0
  6
DOT
 62
     3
 10
-38.449595909999957
 20
-13.543230459289568
 11
-32.647634939999961
 21
-13.543230459289568
  0
LINE
  8
0
  6
DOT
 62
     3
 10
-58.845673959999957
 20
-13.543230459289568
 11
-64.647634939999961
 21
-13.543230459289568
  0
ARC
  8
0
  6
DOT
 62
     3
 10
-32.647634939999961
 20
-12.543230459289568
 40
 1
 50
-90.00000153523392
 51
 0
  0
ARC
  8
0
  6
DOT
 62
     3
 10
-64.647634939999961
 20
-12.543230459289568
 40
 1
 50
-180.00000307046864
 51
-90.00000153523392
  0
LINE
  8
0
  6
DOT
 62
     3
 10
-31.647634939999961
 20
-5.5432304592895676
 11
-31.647634939999961
 21
-34.543230459289568
  0
LINE
  8
0
  6
DOT
 62
     3
 10
-65.647634939999961
 20
-5.5432304592895676
 11
-65.647634939999961
 21
-34.543230459289568
  0
ARC
  8
0
  6
DOT
 62
     3
 10
-30.147634939999961
 20
 8.9567695407104324
 40
 1.5
 50
 90.000001535234716
 51
-180.00000307046864
  0
ARC
  8
0
  6
DOT
 62
     3
 10
-67.147634939999961
 20
 8.9567695407104324
 40
 1.5
 50
 0
 51
 90.000001535234716
  0
LINE
  8
0
  6
DOT
 62
     3
 10
-26.147634939999961
 20
 10.456769540710432
 11
-31.647634939999961
 21
 10.456769540710432
  0
LINE
  8
0
  6
DOT
 62
     3
 10
-71.147634939999961
 20
 10.456769540710432
 11
-65.647634939999961
 21
 10.456769540710432
  0
ARC
  8
0
  6
DOT
 62
     3
 10
-65.647634939999961
 20
 8.4567695407104324
 40
 2
 50
 0
 51
 90.000001535234716
  0
ARC
  8
0
  6
DOT
 62
     3
 10
-31.647634939999961
 20
 8.4567695407104324
 40
 2
 50
 90.000001535234716
 51
-180.00000307046864
  0
LINE
  8
0
  6
DOT
 62
     3
 10
-33.647634939999961
 20
 8.4567695407104324
 11
-33.647634939999961
 21
-5.5432304592895676
  0
LINE
  8
0
  6
DOT
 62
     3
 10
-63.647634939999961
 20
 8.4567695407104324
 11
-63.647634939999961
 21
-5.5432304592895676
  0
LINE
  8
0
  6
DOT
 62
     3
 10
 49.060661630000041
 20
 10.456769540710432
 11
 76.060661630000041
 21
 10.456769540710432
  0
ARC
  8
0
  6
DOT
 62
     3
 10
 76.060661630000041
 20
 8.9567695407104324
 40
 1.5
 50
 0
 51
 90.000001535234716
  0
ARC
  8
0
  6
DOT
 62
     3
 10
 49.060661630000041
 20
 8.9567695407104324
 40
 1.5
 50
 90.000001535234716
 51
-180.00000307046864
  0
LINE
  8
0
  6
DOT
 62
     3
 10
 62.560661630000041
 20
-34.543230459289568
 11
 60.660661630000043
 21
-34.543230459289568
  0
LINE
  8
0
  6
DOT
 62
     3
 10
 64.460661630000033
 20
-34.543230459289568
 11
 62.560661630000041
 21
-34.543230459289568
  0
LINE
  8
0
  6
DOT
 62
     3
 10
 85.060661630000041
 20
-39.543230459289568
 11
 40.060661630000041
 21
-39.543230459289568
  0
LINE
  8
0
  6
DOT
 62
     3
 10
 60.660661630000043
 20
 10.456769540710432
 11
 60.660661630000043
 21
-34.543230459289568
  0
LINE
  8
0
  6
DOT
 62
     3
 10
 64.460661630000033
 20
 10.456769540710432
 11
 64.460661630000033
 21
-34.543230459289568
  0
LINE
  8
0
  6
DOT
 62
     3
 10
 47.560661630000041
 20
 8.9567695407104324
 11
 47.560661630000041
 21
-5.5432304592895676
  0
LINE
  8
0
  6
DOT
 62
     3
 10
 77.560661630000041
 20
 8.9567695407104324
 11
 77.560661630000041
 21
-5.5432304592895676
  0
ARC
  8
0
  6
DASHEDX2
 62
     3
 10
-63.035129509999962
 20
-17.543230459289571
 40
 1
 50
-78.828448584667768
 51
-25.944480212564386
  0
ARC
  8
0
  6
DASHEDX2
 62
     3
 10
-62.647634939999961
 20
-17.543230459289571
 40
 1
 50
-180.00000307046864
 51
-101.17155448580012
  0
ARC
  8
0
  6
DASHEDX2
 62
     3
 10
-34.260140369999959
 20
-17.543230459289571
 40
 1
 50
-154.05552285790347
 51
-101.17155448580012
  0
ARC
  8
0
  6
DASHEDX2
 62
     3
 10
-34.647634939999961
 20
-17.543230459289571
 40
 1
 50
-78.828448584667768
 51
 0
  0
LINE
  8
0
  6
CONTINUOUS
 62
     3
 10
-52.652979909999956
 20
-92.643230459289569
 11
-52.652979909999956
 21
-99.343230459289572
  0
LINE
  8
0
  6
CONTINUOUS
 62
     3
 10
-52.027979909999956
 20
-92.643230459289569
 11
-52.027979909999956
 21
-99.968230459289572
  0
LINE
  8
0
  6
CONTINUOUS
 62
     3
 10
-52.652979909999956
 20
-99.343230459289572
 11
-44.652979909999956
 21
-99.343230459289572
  0
LINE
  8
0
  6
CONTINUOUS
 62
     3
 10
-44.652979909999956
 20
-92.643230459289569
 11
-44.652979909999956
 21
-99.343230459289572
  0
LINE
  8
0
  6
CONTINUOUS
 62
     3
 10
-45.277979909999956
 20
-92.643230459289569
 11
-45.277979909999956
 21
-99.968230459289572
  0
LINE
  8
0
  6
CONTINUOUS
 62
     3
 10
-51.452979909999954
 20
-100.54323045928956
 11
-45.852979909999959
 21
-100.54323045928956
  0
LINE
  8
0
  6
CONTINUOUS
 62
     3
 10
-52.652979909999956
 20
-99.343230459289572
 11
-51.452979909999954
 21
-100.54323045928956
  0
LINE
  8
0
  6
CONTINUOUS
 62
     3
 10
-44.652979909999956
 20
-99.343230459289572
 11
-45.852979909999959
 21
-100.54323045928956
  0
LINE
  8
0
  6
CONTINUOUS
 62
     3
 10
 55.060661630000041
 20
-87.143230459289569
 11
 55.060661630000041
 21
-91.950410129289565
  0
LINE
  8
0
  6
CONTINUOUS
 62
     3
 10
 58.813438380000044
 20
-87.143230459289569
 11
 58.813438380000044
 21
-91.950410129289565
  0
LINE
  8
0
  6
CONTINUOUS
 62
     3
 10
 56.937050000000042
 20
-92.643230459289569
 11
 68.18427326000004
 21
-92.643230459289569
  0
LINE
  8
0
  6
CONTINUOUS
 62
     3
 10
 70.060661630000041
 20
-87.143230459289569
 11
 70.060661630000041
 21
-91.950410129289565
  0
LINE
  8
0
  6
CONTINUOUS
 62
     3
 10
 66.307884880000046
 20
-87.143230459289569
 11
 66.307884880000046
 21
-91.950410129289565
  0
ARC
  8
0
  6
CONTINUOUS
 62
     3
 10
 56.937050000000042
 20
-89.75587769928957
 40
 2.8873527499999998
 50
-130.53139716662508
 51
-49.468605903842793
  0
ARC
  8
0
  6
CONTINUOUS
 62
     3
 10
 68.18427326000004
 20
-89.75587769928957
 40
 2.8873527499999998
 50
-130.53139716662508
 51
-49.468605903842793
  0
ARC
  8
0
  6
CONTINUOUS
 62
     3
 10
 62.560661630000041
 20
-82.16310912928958
 40
 10.480121329999999
 50
-110.95013812260477
 51
-69.049864947863057
  0
LINE
  8
0
  6
CONTINUOUS
 62
     3
 10
 70.260661630000044
 20
-87.143230459289569
 11
 70.260661630000044
 21
-85.143230459289569
  0
LINE
  8
0
  6
CONTINUOUS
 62
     3
 10
 54.860661630000038
 20
-85.143230459289569
 11
 54.860661630000038
 21
-87.143230459289569
  0
LINE
  8
0
  6
CONTINUOUS
 62
     3
 10
 54.860661630000038
 20
-87.143230459289569
 11
 70.260661630000044
 21
-87.143230459289569
  0
LINE
  8
0
  6
CONTINUOUS
 62
     3
 10
 71.060661630000041
 20
-85.143230459289569
 11
 71.060661630000041
 21
-83.54323045928956
  0
LINE
  8
0
  6
CONTINUOUS
 62
     3
 10
 71.060661630000041
 20
-83.54323045928956
 11
 54.060661630000041
 21
-83.54323045928956
  0
LINE
  8
0
  6
CONTINUOUS
 62
     3
 10
 54.060661630000041
 20
-83.54323045928956
 11
 54.060661630000041
 21
-85.143230459289569
  0
LINE
  8
0
  6
CONTINUOUS
 62
     3
 10
 54.060661630000041
 20
-85.143230459289569
 11
 71.060661630000041
 21
-85.143230459289569
  0
LINE
  8
0
  6
CONTINUOUS
 62
     3
 10
 58.555316650000044
 20
-92.643230459289569
 11
 58.555316650000044
 21
-99.343230459289572
  0
LINE
  8
0
  6
CONTINUOUS
 62
     3
 10
 59.180316650000044
 20
-92.643230459289569
 11
 59.180316650000044
 21
-99.968230459289572
  0
LINE
  8
0
  6
CONTINUOUS
 62
     3
 10
 58.555316650000044
 20
-99.343230459289572
 11
 66.555316650000037
 21
-99.343230459289572
  0
LINE
  8
0
  6
CONTINUOUS
 62
     3
 10
 66.555316650000037
 20
-92.643230459289569
 11
 66.555316650000037
 21
-99.343230459289572
  0
LINE
  8
0
  6
CONTINUOUS
 62
     3
 10
 65.930316650000037
 20
-92.643230459289569
 11
 65.930316650000037
 21
-99.968230459289572
  0
LINE
  8
0
  6
CONTINUOUS
 62
     3
 10
 59.75531665000004
 20
-100.54323045928956
 11
 65.355316650000049
 21
-100.54323045928956
  0
LINE
  8
0
  6
CONTINUOUS
 62
     3
 10
 58.555316650000044
 20
-99.343230459289572
 11
 59.75531665000004
 21
-100.54323045928956
  0
LINE
  8
0
  6
CONTINUOUS
 62
     3
 10
 66.555316650000037
 20
-99.343230459289572
 11
 65.355316650000049
 21
-100.54323045928956
  0
LINE
  8
0
  6
CONTINUOUS
 62
     3
 10
-55.147634939999961
 20
-87.143230459289569
 11
-55.147634939999961
 21
-92.643230459289569
  0
LINE
  8
0
  6
CONTINUOUS
 62
     3
 10
-55.147634939999961
 20
-92.643230459289569
 11
-42.147634939999961
 21
-92.643230459289569
  0
LINE
  8
0
  6
CONTINUOUS
 62
     3
 10
-42.147634939999961
 20
-92.643230459289569
 11
-42.147634939999961
 21
-87.143230459289569
  0
LINE
  8
0
  6
CONTINUOUS
 62
     3
 10
-48.647634939999961
 20
-87.143230459289569
 11
-48.647634939999961
 21
-91.950410129289565
  0
ARC
  8
0
  6
CONTINUOUS
 62
     3
 10
-51.897634939999961
 20
-84.71803140928958
 40
 7.92904798
 50
-114.19763000800103
 51
-65.802373062466856
  0
ARC
  8
0
  6
CONTINUOUS
 62
     3
 10
-45.397634939999961
 20
-84.71803140928958
 40
 7.92904798
 50
-114.19763000800103
 51
-65.802373062466856
  0
LINE
  8
0
  6
CONTINUOUS
 62
     3
 10
-40.947634939999958
 20
-85.143230459289569
 11
-40.947634939999958
 21
-87.143230459289569
  0
LINE
  8
0
  6
CONTINUOUS
 62
     3
 10
-56.347634939999963
 20
-85.143230459289569
 11
-56.347634939999963
 21
-87.143230459289569
  0
LINE
  8
0
  6
CONTINUOUS
 62
     3
 10
-56.347634939999963
 20
-87.143230459289569
 11
-40.947634939999958
 21
-87.143230459289569
  0
LINE
  8
0
  6
CONTINUOUS
 62
     3
 10
-48.647634939999961
 20
-87.143230459289569
 11
-49.183533319999952
 21
-85.143230459289569
  0
LINE
  8
0
  6
CONTINUOUS
 62
     3
 10
-48.111736549999961
 20
-87.143230459289569
 11
-48.647634939999961
 21
-85.143230459289569
  0
LINE
  8
0
  6
CONTINUOUS
 62
     3
 10
-40.147634939999961
 20
-83.54323045928956
 11
-40.147634939999961
 21
-85.143230459289569
  0
LINE
  8
0
  6
CONTINUOUS
 62
     3
 10
-57.147634939999961
 20
-83.54323045928956
 11
-40.147634939999961
 21
-83.54323045928956
  0
LINE
  8
0
  6
CONTINUOUS
 62
     3
 10
-57.147634939999961
 20
-83.54323045928956
 11
-57.147634939999961
 21
-85.143230459289569
  0
LINE
  8
0
  6
CONTINUOUS
 62
     3
 10
-57.147634939999961
 20
-85.143230459289569
 11
-40.147634939999961
 21
-85.143230459289569
  0
LINE
  8
256
  6
CONTINUOUS
 62
     7
 10
-193.30000000000001
 20
 124.99999645625348
 11
-93.300000000000011
 21
 124.99999645625348
  0
LINE
  8
256
  6
CONTINUOUS
 62
     7
 10
-93.300000000000011
 20
 124.9999964562535
 11
-93.300000000000011
 21
 136.99999721136808
  0
TEXT
  8
256
  6
CONTINUOUS
 62
     7
 10
-188.30000000000001
 20
 127.99999604817611
 11
-110.30000000000001
 21
 127.99999604817611
 40
 6
 41
 1
  1
Ｃ－Ａ２５－１００，１５０
 50
 0
 72
  5
  0
LINE
  8
256
  6
CONTINUOUS
 62
     7
 10
 104.99998474121094
 20
-121.5
 11
 200
 21
-121.5
  0
LINE
  8
256
  6
CONTINUOUS
 62
     7
 10
 170.99998474121094
 20
-109.5
 11
 170.99998474121094
 21
-121.5
  0
TEXT
  8
256
  6
CONTINUOUS
 62
     7
 10
 112.5
 20
-134.25
 11
 190.5
 21
-134.25
 40
 6
 41
 1
  1
Ｃ－Ａ２５－１００，１５０
 50
 0
 72
  5
  0
TEXT
  8
256
  6
CONTINUOUS
 62
     7
 10
 123.99998474121094
 20
-119.75
 11
 151.99998474121094
 21
-119.75
 40
 5
 41
 0.8
  1
電線サポーター
 50
 0
 72
  5
  0
TEXT
  8
256
  6
CONTINUOUS
 62
     7
 10
 106.29998779296875
 20
-112.4499633789062
 11
 111.29998779296875
 21
-112.4499633789062
 40
 2.5
 41
 0.8
  1
品名
 50
 0
 72
  5
  0
TEXT
  8
256
  6
CONTINUOUS
 62
     7
 10
 106.29998779296875
 20
-124.45003051757811
 11
 111.29998779296875
 21
-124.45003051757811
 40
 2.5
 41
 0.8
  1
品番
 50
 0
 72
  5
  0
LINE
  8
256
  6
CONTINUOUS
 62
     7
 10
 104.99998474121094
 20
-139.5
 11
 104.99998474121094
 21
-109.5
  0
LINE
  8
256
  6
CONTINUOUS
 62
     7
 10
 104.99998474121094
 20
-109.5
 11
 200
 21
-109.5
  0
LINE
  8
256
  6
CONTINUOUS
 62
     7
 10
-193.30000000000001
 20
 136.99999721136808
 11
-193.30000000000001
 21
-139.49999999999994
  0
LINE
  8
256
  6
CONTINUOUS
 62
     7
 10
-193.30000000000001
 20
 136.99999721136808
 11
 200
 21
 136.99999721136808
  0
LINE
  8
256
  6
CONTINUOUS
 62
     7
 10
 200
 20
-139.5
 11
-193.30000000000001
 21
-139.49999999999994
  0
LINE
  8
256
  6
CONTINUOUS
 62
     7
 10
 200
 20
 136.99999721136808
 11
 200
 21
-139.5
  0
TEXT
  8
0
  6
CONTINUOUS
 62
     7
 10
 177.49999237060547
 20
-114.25
 11
 193.49999237060547
 21
-114.25
 40
 3.5
 41
 0.8
  1
１００ｓｑ
 50
 0
 72
  5
  0
TEXT
  8
0
  6
CONTINUOUS
 62
     7
 10
 177.49999237060547
 20
-120.25
 11
 193.49999237060547
 21
-120.25
 40
 3.5
 41
 0.8
  1
１５０ｓｑ
 50
 0
 72
  5
  0
LINE
  8
0
  6
DASHDOT
 62
     7
 10
-76.147634939999961
 20
-24.54323045928956
 11
-21.147634939999961
 21
-24.54323045928956
  0
LINE
  8
0
  6
DASHDOT
 62
     7
 10
-48.647634939999968
 20
-105.54323045928956
 11
-48.647634939999953
 21
 87.531387050710435
  0
LINE
  8
0
  6
DASHDOT
 62
     7
 10
 62.560661620000026
 20
-105.54323045928956
 11
 62.560661620000033
 21
 20.45676954071044
  0
LINE
  8
0
  6
DASHDOT
 62
     7
 10
-84.933765919999956
 20
 55.031387050710435
 11
-12.361503949999957
 21
 55.031387050710435
  0
LINE
  8
0
  6
DASHDOT
 62
     7
 10
 42.560661630000041
 20
-24.54323045928956
 11
 82.560661630000041
 21
-24.54323045928956
  0
TEXT
  8
0
  6
CONTINUOUS
 62
     3
 10
-47.447634931153836
 20
 51.850675954556557
 11
-47.447634954230573
 21
 59.05067595455656
 40
 2.3999999999999999
 41
 1
  1
ＫＲＣ
 50
 90.00000171887342
 72
  5
  0
CIRCLE
  8
0
  6
CONTINUOUS
 62
     2
 10
-48.647634939999961
 20
-24.543230459289571
 40
 12.5
  0
LINE
  8
0
  6
CONTINUOUS
 62
     7
 10
 14.087227414330206
 20
 86.704049844236891
 11
 14.087227414330206
 21
 56.704049844236891
  0
LINE
  8
0
  6
CONTINUOUS
 62
     7
 10
 119.08722741433019
 20
 56.704049844236877
 11
 119.08722741433019
 21
 86.704049844236877
  0
LINE
  8
0
  6
CONTINUOUS
 62
     7
 10
 119.08722741433019
 20
 76.704049844236877
 11
 14.087227414330215
 21
 76.704049844236877
  0
LINE
  8
0
  6
CONTINUOUS
 62
     7
 10
 119.08722741433019
 20
 66.704049844236877
 11
 14.087227414330215
 21
 66.704049844236877
  0
LINE
  8
0
  6
CONTINUOUS
 62
     7
 10
 119.08722741433019
 20
 56.704049844236877
 11
 14.087227414330215
 21
 56.704049844236877
  0
LINE
  8
0
  6
CONTINUOUS
 62
     7
 10
 64.087227414330187
 20
 86.704049844236877
 11
 64.087227414330187
 21
 56.704049844236884
  0
LINE
  8
0
  6
CONTINUOUS
 62
     7
 10
 94.087227414330187
 20
 86.704049844236877
 11
 94.087227414330187
 21
 56.704049844236877
  0
LINE
  8
0
  6
CONTINUOUS
 62
     7
 10
 119.08722741433019
 20
 86.704049844236877
 11
 14.087227414330215
 21
 86.704049844236877
  0
TEXT
  8
0
  6
CONTINUOUS
 62
     7
 10
 35.787227414330196
 20
 79.704049844236891
 11
 42.387227414330191
 21
 79.704049844236891
 40
 4
 41
 0.8
  1
品番
 50
 0
 72
  5
  0
TEXT
  8
0
  6
CONTINUOUS
 62
     7
 10
 23.887227414330198
 20
 69.704049844236877
 11
 54.287227414330204
 21
 69.704049844236877
 40
 4
 41
 0.8
  1
Ｃ－Ａ２５－１００
 50
 0
 72
  5
  0
TEXT
  8
0
  6
CONTINUOUS
 62
     7
 10
 23.887227414330198
 20
 59.704049844236877
 11
 54.287227414330204
 21
 59.704049844236877
 40
 4
 41
 0.8
  1
Ｃ－Ａ２５－１５０
 50
 0
 72
  5
  0
TEXT
  8
0
  6
CONTINUOUS
 62
     7
 10
 70.687227414330181
 20
 79.704049844236877
 11
 87.487227414330192
 21
 79.704049844236877
 40
 4
 41
 0.8
  1
電線サイズ
 50
 0
 72
  5
  0
TEXT
  8
0
  6
CONTINUOUS
 62
     7
 10
 70.687227414330181
 20
 69.704049844236877
 11
 87.487227414330192
 21
 69.704049844236877
 40
 4
 41
 0.8
  1
１００ｓｑ
 50
 0
 72
  5
  0
TEXT
  8
0
  6
CONTINUOUS
 62
     7
 10
 70.687227414330181
 20
 59.704049844236877
 11
 87.487227414330192
 21
 59.704049844236877
 40
 4
 41
 0.8
  1
１５０ｓｑ
 50
 0
 72
  5
  0
TEXT
  8
0
  6
CONTINUOUS
 62
     7
 10
 101.58722741433017
 20
 79.704049844236877
 11
 111.58722741433017
 21
 79.704049844236877
 40
 4
 41
 0.8
  1
Ｒ寸法
 50
 0
 72
  5
  0
TEXT
  8
0
  6
CONTINUOUS
 62
     7
 10
 99.887227414330184
 20
 69.704049844236877
 11
 113.28722741433019
 21
 69.704049844236877
 40
 4
 41
 0.8
  1
１０．５
 50
 0
 72
  5
  0
TEXT
  8
0
  6
CONTINUOUS
 62
     7
 10
 99.887227414330184
 20
 59.704049844236877
 11
 113.28722741433019
 21
 59.704049844236877
 40
 4
 41
 0.8
  1
１２．５
 50
 0
 72
  5
  0
LINE
  8
0
  6
CONTINUOUS
 62
     7
 10
-80.397634939999961
 20
 15.456769540710434
 11
-111.39763493999996
 21
 15.456769540710432
  0
LINE
  8
0
  6
CONTINUOUS
 62
     7
 10
-63.647634939999961
 20
-83.54323045928956
 11
-111.39763493999996
 21
-83.54323045928956
  0
LINE
  8
0
  6
CONTINUOUS
 62
     7
 10
-110.39763493999996
 20
 15.456769540710432
 11
-110.39763493999996
 21
-83.54323045928956
  0
LINE
  8
0
  6
CONTINUOUS
 62
     7
 10
-110.39763493999996
 20
 15.456769540710432
 11
-111.17409207530753
 21
 12.558992061843227
  0
LINE
  8
0
  6
CONTINUOUS
 62
     7
 10
-110.39763493999996
 20
 15.456769540710432
 11
-109.62117780469239
 21
 12.558992061843227
  0
LINE
  8
0
  6
CONTINUOUS
 62
     7
 10
-110.39763493999996
 20
-83.54323045928956
 11
-109.62117780469239
 21
-80.645452980422363
  0
LINE
  8
0
  6
CONTINUOUS
 62
     7
 10
-110.39763493999996
 20
-83.54323045928956
 11
-111.17409207530753
 21
-80.645452980422363
  0
TEXT
  8
0
  6
CONTINUOUS
 62
     7
 10
-111.19763493999996
 20
-36.04323045928956
 11
-111.19763493999996
 21
-32.04323045928956
 40
 2.5
 41
 0.8
  1
99
 50
 90.000001535234517
 72
  5
  0
LINE
  8
0
  6
CONTINUOUS
 62
     7
 10
-77.147634939999961
 20
-24.54323045928956
 11
-96.397634939999961
 21
-24.54323045928956
  0
LINE
  8
0
  6
CONTINUOUS
 62
     7
 10
-63.647634939999961
 20
-83.54323045928956
 11
-96.397634939999961
 21
-83.54323045928956
  0
LINE
  8
0
  6
CONTINUOUS
 62
     7
 10
-95.397634939999961
 20
-24.54323045928956
 11
-95.397634939999961
 21
-83.54323045928956
  0
LINE
  8
0
  6
CONTINUOUS
 62
     7
 10
-95.397634939999961
 20
-24.54323045928956
 11
-96.174092075307527
 21
-27.441007938156766
  0
LINE
  8
0
  6
CONTINUOUS
 62
     7
 10
-95.397634939999961
 20
-24.54323045928956
 11
-94.621177804692394
 21
-27.441007938156766
  0
LINE
  8
0
  6
CONTINUOUS
 62
     7
 10
-95.397634939999961
 20
-83.54323045928956
 11
-94.621177804692394
 21
-80.645452980422363
  0
LINE
  8
0
  6
CONTINUOUS
 62
     7
 10
-95.397634939999961
 20
-83.54323045928956
 11
-96.174092075307527
 21
-80.645452980422363
  0
TEXT
  8
0
  6
CONTINUOUS
 62
     7
 10
-96.197634939999958
 20
-56.04323045928956
 11
-96.197634939999958
 21
-52.04323045928956
 40
 2.5
 41
 0.8
  1
59
 50
 90.000001535234517
 72
  5
  0
LINE
  8
0
  6
CONTINUOUS
 62
     7
 10
-79.897634939999961
 20
 60.228838441034746
 11
-79.897634939999961
 21
 108.53138705071044
  0
LINE
  8
0
  6
CONTINUOUS
 62
     7
 10
-17.397634939999968
 20
 60.228838441034739
 11
-17.397634939999968
 21
 108.53138705071044
  0
LINE
  8
0
  6
CONTINUOUS
 62
     7
 10
-79.897634939999961
 20
 107.53138705071044
 11
-17.397634939999968
 21
 107.53138705071044
  0
LINE
  8
0
  6
CONTINUOUS
 62
     7
 10
-79.897634939999961
 20
 107.53138705071044
 11
-76.999857461132763
 21
 106.75492991540287
  0
LINE
  8
0
  6
CONTINUOUS
 62
     7
 10
-79.897634939999961
 20
 107.53138705071044
 11
-76.999857461132763
 21
 108.307844186018
  0
LINE
  8
0
  6
CONTINUOUS
 62
     7
 10
-17.397634939999968
 20
 107.53138705071044
 11
-20.295412418867173
 21
 108.307844186018
  0
LINE
  8
0
  6
CONTINUOUS
 62
     7
 10
-17.397634939999968
 20
 107.53138705071044
 11
-20.295412418867173
 21
 106.75492991540287
  0
TEXT
  8
0
  6
CONTINUOUS
 62
     7
 10
-52.647634939999968
 20
 108.33138705071043
 11
-44.647634939999968
 21
 108.33138705071043
 40
 2.5
 41
 0.8
  1
62.5
 50
 0
 72
  5
  0
LINE
  8
0
  6
CONTINUOUS
 62
     7
 10
-63.647634939999961
 20
-83.54323045928956
 11
-96.397634939999961
 21
-83.54323045928956
  0
LINE
  8
0
  6
CONTINUOUS
 62
     7
 10
-52.452979909999954
 20
-100.54323045928956
 11
-96.397634939999961
 21
-100.54323045928956
  0
LINE
  8
0
  6
CONTINUOUS
 62
     7
 10
-95.397634939999961
 20
-83.54323045928956
 11
-95.397634939999961
 21
-100.54323045928956
  0
LINE
  8
0
  6
CONTINUOUS
 62
     7
 10
-95.397634939999961
 20
-83.54323045928956
 11
-96.174092075307527
 21
-86.441007938156758
  0
LINE
  8
0
  6
CONTINUOUS
 62
     7
 10
-95.397634939999961
 20
-83.54323045928956
 11
-94.621177804692394
 21
-86.441007938156758
  0
LINE
  8
0
  6
CONTINUOUS
 62
     7
 10
-95.397634939999961
 20
-100.54323045928956
 11
-94.621177804692394
 21
-97.645452980422363
  0
LINE
  8
0
  6
CONTINUOUS
 62
     7
 10
-95.397634939999961
 20
-100.54323045928956
 11
-96.174092075307527
 21
-97.645452980422363
  0
TEXT
  8
0
  6
CONTINUOUS
 62
     7
 10
-96.197634939999958
 20
-94.04323045928956
 11
-96.197634939999958
 21
-90.04323045928956
 40
 2.5
 41
 0.8
  1
17
 50
 90.000001535234517
 72
  5
  0
LINE
  8
0
  6
CONTINUOUS
 62
     7
 10
 85.060661630000041
 20
-79.543230459289575
 11
 85.060661630000041
 21
-116.54323045928956
  0
LINE
  8
0
  6
CONTINUOUS
 62
     7
 10
 40.060661630000041
 20
-79.543230459289575
 11
 40.060661630000041
 21
-116.54323045928956
  0
LINE
  8
0
  6
CONTINUOUS
 62
     7
 10
 85.060661630000041
 20
-115.54323045928956
 11
 40.060661630000041
 21
-115.54323045928956
  0
LINE
  8
0
  6
CONTINUOUS
 62
     7
 10
 85.060661630000041
 20
-115.54323045928956
 11
 82.162884151132829
 21
-114.76677332398199
  0
LINE
  8
0
  6
CONTINUOUS
 62
     7
 10
 85.060661630000041
 20
-115.54323045928956
 11
 82.162884151132829
 21
-116.31968759459713
  0
LINE
  8
0
  6
CONTINUOUS
 62
     7
 10
 40.060661630000041
 20
-115.54323045928956
 11
 42.958439108867246
 21
-116.31968759459713
  0
LINE
  8
0
  6
CONTINUOUS
 62
     7
 10
 40.060661630000041
 20
-115.54323045928956
 11
 42.958439108867246
 21
-114.76677332398199
  0
TEXT
  8
0
  6
CONTINUOUS
 62
     7
 10
 60.560661630000041
 20
-114.74323045928956
 11
 64.560661630000041
 21
-114.74323045928956
 40
 2.5
 41
 0.8
  1
45
 50
 0
 72
  5
  0
LINE
  8
0
  6
CONTINUOUS
 62
     7
 10
-68.792483879999963
 20
 27.531387050710435
 11
-111.39763493999996
 21
 27.531387050710435
  0
LINE
  8
0
  6
CONTINUOUS
 62
     7
 10
-68.792483879999963
 20
 82.531387050710435
 11
-111.39763493999996
 21
 82.531387050710435
  0
LINE
  8
0
  6
CONTINUOUS
 62
     7
 10
-110.39763493999996
 20
 27.531387050710435
 11
-110.39763493999996
 21
 82.531387050710435
  0
LINE
  8
0
  6
CONTINUOUS
 62
     7
 10
-110.39763493999996
 20
 27.531387050710435
 11
-109.62117780469239
 21
 30.429164529577641
  0
LINE
  8
0
  6
CONTINUOUS
 62
     7
 10
-110.39763493999996
 20
 27.531387050710435
 11
-111.17409207530753
 21
 30.429164529577641
  0
LINE
  8
0
  6
CONTINUOUS
 62
     7
 10
-110.39763493999996
 20
 82.531387050710435
 11
-111.17409207530753
 21
 79.633609571843238
  0
LINE
  8
0
  6
CONTINUOUS
 62
     7
 10
-110.39763493999996
 20
 82.531387050710435
 11
-109.62117780469239
 21
 79.633609571843238
  0
TEXT
  8
0
  6
CONTINUOUS
 62
     7
 10
-111.19763493999996
 20
 53.031387050710435
 11
-111.19763493999996
 21
 57.031387050710435
 40
 2.5
 41
 0.8
  1
55
 50
 90.000001535234517
 72
  5
  0
LINE
  8
0
  6
CONTINUOUS
 62
     7
 10
-52.652979909999956
 20
-100.34323045928957
 11
-52.652979909999956
 21
-116.54323045928955
  0
LINE
  8
0
  6
CONTINUOUS
 62
     7
 10
-44.652979909999956
 20
-100.34323045928957
 11
-44.652979909999956
 21
-116.54323045928955
  0
LINE
  8
0
  6
CONTINUOUS
 62
     7
 10
-52.652979909999956
 20
-115.54323045928955
 11
-44.652979909999956
 21
-115.54323045928955
  0
LINE
  8
0
  6
CONTINUOUS
 62
     7
 10
-52.652979909999956
 20
-115.54323045928955
 11
-49.755202431132751
 21
-116.31968759459711
  0
LINE
  8
0
  6
CONTINUOUS
 62
     7
 10
-52.652979909999956
 20
-115.54323045928955
 11
-49.755202431132751
 21
-114.76677332398198
  0
LINE
  8
0
  6
CONTINUOUS
 62
     7
 10
-44.652979909999956
 20
-115.54323045928955
 11
-47.550757388867162
 21
-114.76677332398198
  0
LINE
  8
0
  6
CONTINUOUS
 62
     7
 10
-44.652979909999956
 20
-115.54323045928955
 11
-47.550757388867162
 21
-116.31968759459711
  0
TEXT
  8
0
  6
CONTINUOUS
 62
     7
 10
-49.652979909999956
 20
-114.74323045928955
 11
-47.652979909999956
 21
-114.74323045928955
 40
 2.5
 41
 0.8
  1
8
 50
 0
 72
  5
  0
LINE
  8
0
  6
CONTINUOUS
 62
     7
 10
-61.048848583645245
 20
-26.111637346760432
 11
-36.246421296354676
 21
-22.974823571818707
  0
TEXT
  8
0
  6
CONTINUOUS
 62
     7
 10
-12.833998144645197
 20
-19.207433777073565
 11
-6.8814155956954597
 21
-18.45459847108755
 40
 2.5
 41
 0.8
  1
（Ｒ）
 50
 7.2080459383878388
 72
  5
  0
LINE
  8
0
  6
CONTINUOUS
 62
     7
 10
-6.7810375548973241
 20
-19.248276144280847
 11
-36.246421296354676
 21
-22.974823571818707
  0
LINE
  8
0
  6
CONTINUOUS
 62
     7
 10
-36.246421296354676
 20
-22.974823571818707
 11
-33.27412063027321
 21
-23.381552904928196
  0
LINE
  8
0
  6
CONTINUOUS
 62
     7
 10
-36.246421296354676
 20
-22.974823571818707
 11
-33.468968745287974
 21
-21.840911173715096
  0
LINE
  8
0
  6
CONTINUOUS
 62
     7
 10
-64.025139858120113
 20
-26.488054999753437
 11
-61.048848583645245
 21
-26.111637346760432
  0
LINE
  8
0
  6
CONTINUOUS
 62
     7
 10
-61.048848583645245
 20
-26.111637346760432
 11
-64.021149249726705
 21
-25.704908013650943
  0
LINE
  8
0
  6
CONTINUOUS
 62
     7
 10
-61.048848583645245
 20
-26.111637346760432
 11
-63.826301134711947
 21
-27.245549744864043
  0
ENDSEC
  0
EOF
