  0
SECTION
  2
HEADER
  9
$INSBASE
 10
0.0
20
0.0
  9
$REGENMODE
 70
     1
  9
$DRAGMODE
 70
     1
  9
$DIMTAD
 70
     1
  9
$EXTMIN
 10
-105.000000
 20
-74.250000
 30
 0.0
  9
$EXTMAX
 10
105.000000
 20
74.250000
 30
 0.0
  9
$LUPREC
 70
    3
  9
$AUPREC
 70
    3
  9
$LTSCALE
 40
26.250000
  0
ENDSEC
  0
SECTION
  2
TABLES
  0
TABLE
  2
LTYPE
 70
     6
  0
LTYPE
  2
CONTINUOUS
 70
    64
  3
SOLID
 72
    65
 73
     0
 40
0.0
  0
LTYPE
  2
DASHED2
 70
    64
  3
_ _ _ _ _ _ _ _ _ _ _ _ _ _ _ _ _ _ _ _ _ _ 
 72
    65
 73
     2
 40
0.5
 49
0.25
 49
-0.25
  0
LTYPE
  2
DASHED
 70
    64
  3
__ __ __ __ __ __ __ __ __ __ __ __ __ __ __
 72
    65
 73
     2
 40
0.75
 49
0.5
 49
-0.25
  0
LTYPE
  2
DASHEDX2
 70
    64
  3
____  ____  ____  ____  ____  ____  ____  __
 72
    65
 73
     2
 40
1.5
 49
1.0
 49
-0.5
  0
LTYPE
  2
DOT
 70
    64
  3
............................................
 72
    65
 73
     2
 40
0.25
 49
0
 49
-0.25
  0
LTYPE
  2
DASHDOT
 70
    64
  3
__ . __ . __ . __ . __ . __ . __ . __ . __ .
 72
    65
 73
     4
 40
1.0
 49
0.5
 49
-0.25
 49
0.0
 49
-0.25
  0
LTYPE
  2
CENTER
 70
    64
  3
____ _ ____ _ ____ _ ____ _ ____ _ ____ _ __
 72
    65
 73
     4
 40
2.0
 49
1.25
 49
-0.25
 49
0.25
 49
-0.25
  0
LTYPE
  2
DIVIDE
 70
    64
  3
__ . . __ . . __ . . __ . . __ . . __ . . __
 72
    65
 73
     6
 40
1.25
 49
0.5
 49
-0.25
 49
0.0
 49
-0.25
 49
0.0
 49
-0.25
  0
LTYPE
  2
PHANTOM2
 70
    64
  3
___ _ _ ___ _ _ ___ _ _ ___ _ _ ___ _ _ ___ 
 72
    65
 73
     6
 40
1.25
 49
0.625
 49
-0.125
 49
0.125
 49
-0.125
 49
0.125
 49
-0.125
  0
LTYPE
  2
DOTX2
 70
    64
  3
. . . . . . . . . . . . . . . . . . . . . . 
 72
    65
 73
     2
 40
0.5
 49
0
 49
-0.5
  0
ENDTAB
  0
TABLE
  2
LAYER
 70
   255
  0
LAYER
  2
0
 70
    64
 62
     7
  6
CONTINUOUS
  0
LAYER
  2
1
 70
    64
 62
     7
  6
CONTINUOUS
  0
LAYER
  2
2
 70
    64
 62
     7
  6
CONTINUOUS
  0
LAYER
  2
3
 70
    64
 62
     7
  6
CONTINUOUS
  0
LAYER
  2
4
 70
    64
 62
     7
  6
CONTINUOUS
  0
LAYER
  2
5
 70
    64
 62
     7
  6
CONTINUOUS
  0
LAYER
  2
6
 70
    64
 62
     7
  6
CONTINUOUS
  0
LAYER
  2
7
 70
    64
 62
     7
  6
CONTINUOUS
  0
LAYER
  2
8
 70
    64
 62
     7
  6
CONTINUOUS
  0
LAYER
  2
9
 70
    64
 62
     7
  6
CONTINUOUS
  0
LAYER
  2
10
 70
    64
 62
     7
  6
CONTINUOUS
  0
LAYER
  2
11
 70
    64
 62
     7
  6
CONTINUOUS
  0
LAYER
  2
12
 70
    64
 62
     7
  6
CONTINUOUS
  0
LAYER
  2
13
 70
    64
 62
     7
  6
CONTINUOUS
  0
LAYER
  2
14
 70
    64
 62
     7
  6
CONTINUOUS
  0
LAYER
  2
15
 70
    64
 62
     7
  6
CONTINUOUS
  0
LAYER
  2
16
 70
    64
 62
     7
  6
CONTINUOUS
  0
LAYER
  2
17
 70
    64
 62
     7
  6
CONTINUOUS
  0
LAYER
  2
18
 70
    64
 62
     7
  6
CONTINUOUS
  0
LAYER
  2
19
 70
    64
 62
     7
  6
CONTINUOUS
  0
LAYER
  2
20
 70
    64
 62
     7
  6
CONTINUOUS
  0
LAYER
  2
21
 70
    64
 62
     7
  6
CONTINUOUS
  0
LAYER
  2
22
 70
    64
 62
     7
  6
CONTINUOUS
  0
LAYER
  2
23
 70
    64
 62
     7
  6
CONTINUOUS
  0
LAYER
  2
24
 70
    64
 62
     7
  6
CONTINUOUS
  0
LAYER
  2
25
 70
    64
 62
     7
  6
CONTINUOUS
  0
LAYER
  2
26
 70
    64
 62
     7
  6
CONTINUOUS
  0
LAYER
  2
27
 70
    64
 62
     7
  6
CONTINUOUS
  0
LAYER
  2
28
 70
    64
 62
     7
  6
CONTINUOUS
  0
LAYER
  2
29
 70
    64
 62
     7
  6
CONTINUOUS
  0
LAYER
  2
30
 70
    64
 62
     7
  6
CONTINUOUS
  0
LAYER
  2
31
 70
    64
 62
     7
  6
CONTINUOUS
  0
LAYER
  2
32
 70
    64
 62
     7
  6
CONTINUOUS
  0
LAYER
  2
33
 70
    64
 62
     7
  6
CONTINUOUS
  0
LAYER
  2
34
 70
    64
 62
     7
  6
CONTINUOUS
  0
LAYER
  2
35
 70
    64
 62
     7
  6
CONTINUOUS
  0
LAYER
  2
36
 70
    64
 62
     7
  6
CONTINUOUS
  0
LAYER
  2
37
 70
    64
 62
     7
  6
CONTINUOUS
  0
LAYER
  2
38
 70
    64
 62
     7
  6
CONTINUOUS
  0
LAYER
  2
39
 70
    64
 62
     7
  6
CONTINUOUS
  0
LAYER
  2
40
 70
    64
 62
     7
  6
CONTINUOUS
  0
LAYER
  2
41
 70
    64
 62
     7
  6
CONTINUOUS
  0
LAYER
  2
42
 70
    64
 62
     7
  6
CONTINUOUS
  0
LAYER
  2
43
 70
    64
 62
     7
  6
CONTINUOUS
  0
LAYER
  2
44
 70
    64
 62
     7
  6
CONTINUOUS
  0
LAYER
  2
45
 70
    64
 62
     7
  6
CONTINUOUS
  0
LAYER
  2
46
 70
    64
 62
     7
  6
CONTINUOUS
  0
LAYER
  2
47
 70
    64
 62
     7
  6
CONTINUOUS
  0
LAYER
  2
48
 70
    64
 62
     7
  6
CONTINUOUS
  0
LAYER
  2
49
 70
    64
 62
     7
  6
CONTINUOUS
  0
LAYER
  2
50
 70
    64
 62
     7
  6
CONTINUOUS
  0
LAYER
  2
51
 70
    64
 62
     7
  6
CONTINUOUS
  0
LAYER
  2
52
 70
    64
 62
     7
  6
CONTINUOUS
  0
LAYER
  2
53
 70
    64
 62
     7
  6
CONTINUOUS
  0
LAYER
  2
54
 70
    64
 62
     7
  6
CONTINUOUS
  0
LAYER
  2
55
 70
    64
 62
     7
  6
CONTINUOUS
  0
LAYER
  2
56
 70
    64
 62
     7
  6
CONTINUOUS
  0
LAYER
  2
57
 70
    64
 62
     7
  6
CONTINUOUS
  0
LAYER
  2
58
 70
    64
 62
     7
  6
CONTINUOUS
  0
LAYER
  2
59
 70
    64
 62
     7
  6
CONTINUOUS
  0
LAYER
  2
60
 70
    64
 62
     7
  6
CONTINUOUS
  0
LAYER
  2
61
 70
    64
 62
     7
  6
CONTINUOUS
  0
LAYER
  2
62
 70
    64
 62
     7
  6
CONTINUOUS
  0
LAYER
  2
63
 70
    64
 62
     7
  6
CONTINUOUS
  0
LAYER
  2
64
 70
    64
 62
     7
  6
CONTINUOUS
  0
LAYER
  2
65
 70
    64
 62
     7
  6
CONTINUOUS
  0
LAYER
  2
66
 70
    64
 62
     7
  6
CONTINUOUS
  0
LAYER
  2
67
 70
    64
 62
     7
  6
CONTINUOUS
  0
LAYER
  2
68
 70
    64
 62
     7
  6
CONTINUOUS
  0
LAYER
  2
69
 70
    64
 62
     7
  6
CONTINUOUS
  0
LAYER
  2
70
 70
    64
 62
     7
  6
CONTINUOUS
  0
LAYER
  2
71
 70
    64
 62
     7
  6
CONTINUOUS
  0
LAYER
  2
72
 70
    64
 62
     7
  6
CONTINUOUS
  0
LAYER
  2
73
 70
    64
 62
     7
  6
CONTINUOUS
  0
LAYER
  2
74
 70
    64
 62
     7
  6
CONTINUOUS
  0
LAYER
  2
75
 70
    64
 62
     7
  6
CONTINUOUS
  0
LAYER
  2
76
 70
    64
 62
     7
  6
CONTINUOUS
  0
LAYER
  2
77
 70
    64
 62
     7
  6
CONTINUOUS
  0
LAYER
  2
78
 70
    64
 62
     7
  6
CONTINUOUS
  0
LAYER
  2
79
 70
    64
 62
     7
  6
CONTINUOUS
  0
LAYER
  2
80
 70
    64
 62
     7
  6
CONTINUOUS
  0
LAYER
  2
81
 70
    64
 62
     7
  6
CONTINUOUS
  0
LAYER
  2
82
 70
    64
 62
     7
  6
CONTINUOUS
  0
LAYER
  2
83
 70
    64
 62
     7
  6
CONTINUOUS
  0
LAYER
  2
84
 70
    64
 62
     7
  6
CONTINUOUS
  0
LAYER
  2
85
 70
    64
 62
     7
  6
CONTINUOUS
  0
LAYER
  2
86
 70
    64
 62
     7
  6
CONTINUOUS
  0
LAYER
  2
87
 70
    64
 62
     7
  6
CONTINUOUS
  0
LAYER
  2
88
 70
    64
 62
     7
  6
CONTINUOUS
  0
LAYER
  2
89
 70
    64
 62
     7
  6
CONTINUOUS
  0
LAYER
  2
90
 70
    64
 62
     7
  6
CONTINUOUS
  0
LAYER
  2
91
 70
    64
 62
     7
  6
CONTINUOUS
  0
LAYER
  2
92
 70
    64
 62
     7
  6
CONTINUOUS
  0
LAYER
  2
93
 70
    64
 62
     7
  6
CONTINUOUS
  0
LAYER
  2
94
 70
    64
 62
     7
  6
CONTINUOUS
  0
LAYER
  2
95
 70
    64
 62
     7
  6
CONTINUOUS
  0
LAYER
  2
96
 70
    64
 62
     7
  6
CONTINUOUS
  0
LAYER
  2
97
 70
    64
 62
     7
  6
CONTINUOUS
  0
LAYER
  2
98
 70
    64
 62
     7
  6
CONTINUOUS
  0
LAYER
  2
99
 70
    64
 62
     7
  6
CONTINUOUS
  0
LAYER
  2
100
 70
    64
 62
     7
  6
CONTINUOUS
  0
LAYER
  2
101
 70
    64
 62
     7
  6
CONTINUOUS
  0
LAYER
  2
102
 70
    64
 62
     7
  6
CONTINUOUS
  0
LAYER
  2
103
 70
    64
 62
     7
  6
CONTINUOUS
  0
LAYER
  2
104
 70
    64
 62
     7
  6
CONTINUOUS
  0
LAYER
  2
105
 70
    64
 62
     7
  6
CONTINUOUS
  0
LAYER
  2
106
 70
    64
 62
     7
  6
CONTINUOUS
  0
LAYER
  2
107
 70
    64
 62
     7
  6
CONTINUOUS
  0
LAYER
  2
108
 70
    64
 62
     7
  6
CONTINUOUS
  0
LAYER
  2
109
 70
    64
 62
     7
  6
CONTINUOUS
  0
LAYER
  2
110
 70
    64
 62
     7
  6
CONTINUOUS
  0
LAYER
  2
111
 70
    64
 62
     7
  6
CONTINUOUS
  0
LAYER
  2
112
 70
    64
 62
     7
  6
CONTINUOUS
  0
LAYER
  2
113
 70
    64
 62
     7
  6
CONTINUOUS
  0
LAYER
  2
114
 70
    64
 62
     7
  6
CONTINUOUS
  0
LAYER
  2
115
 70
    64
 62
     7
  6
CONTINUOUS
  0
LAYER
  2
116
 70
    64
 62
     7
  6
CONTINUOUS
  0
LAYER
  2
117
 70
    64
 62
     7
  6
CONTINUOUS
  0
LAYER
  2
118
 70
    64
 62
     7
  6
CONTINUOUS
  0
LAYER
  2
119
 70
    64
 62
     7
  6
CONTINUOUS
  0
LAYER
  2
120
 70
    64
 62
     7
  6
CONTINUOUS
  0
LAYER
  2
121
 70
    64
 62
     7
  6
CONTINUOUS
  0
LAYER
  2
122
 70
    64
 62
     7
  6
CONTINUOUS
  0
LAYER
  2
123
 70
    64
 62
     7
  6
CONTINUOUS
  0
LAYER
  2
124
 70
    64
 62
     7
  6
CONTINUOUS
  0
LAYER
  2
125
 70
    64
 62
     7
  6
CONTINUOUS
  0
LAYER
  2
126
 70
    64
 62
     7
  6
CONTINUOUS
  0
LAYER
  2
127
 70
    64
 62
     7
  6
CONTINUOUS
  0
LAYER
  2
128
 70
    64
 62
     7
  6
CONTINUOUS
  0
LAYER
  2
129
 70
    64
 62
     7
  6
CONTINUOUS
  0
LAYER
  2
130
 70
    64
 62
     7
  6
CONTINUOUS
  0
LAYER
  2
131
 70
    64
 62
     7
  6
CONTINUOUS
  0
LAYER
  2
132
 70
    64
 62
     7
  6
CONTINUOUS
  0
LAYER
  2
133
 70
    64
 62
     7
  6
CONTINUOUS
  0
LAYER
  2
134
 70
    64
 62
     7
  6
CONTINUOUS
  0
LAYER
  2
135
 70
    64
 62
     7
  6
CONTINUOUS
  0
LAYER
  2
136
 70
    64
 62
     7
  6
CONTINUOUS
  0
LAYER
  2
137
 70
    64
 62
     7
  6
CONTINUOUS
  0
LAYER
  2
138
 70
    64
 62
     7
  6
CONTINUOUS
  0
LAYER
  2
139
 70
    64
 62
     7
  6
CONTINUOUS
  0
LAYER
  2
140
 70
    64
 62
     7
  6
CONTINUOUS
  0
LAYER
  2
141
 70
    64
 62
     7
  6
CONTINUOUS
  0
LAYER
  2
142
 70
    64
 62
     7
  6
CONTINUOUS
  0
LAYER
  2
143
 70
    64
 62
     7
  6
CONTINUOUS
  0
LAYER
  2
144
 70
    64
 62
     7
  6
CONTINUOUS
  0
LAYER
  2
145
 70
    64
 62
     7
  6
CONTINUOUS
  0
LAYER
  2
146
 70
    64
 62
     7
  6
CONTINUOUS
  0
LAYER
  2
147
 70
    64
 62
     7
  6
CONTINUOUS
  0
LAYER
  2
148
 70
    64
 62
     7
  6
CONTINUOUS
  0
LAYER
  2
149
 70
    64
 62
     7
  6
CONTINUOUS
  0
LAYER
  2
150
 70
    64
 62
     7
  6
CONTINUOUS
  0
LAYER
  2
151
 70
    64
 62
     7
  6
CONTINUOUS
  0
LAYER
  2
152
 70
    64
 62
     7
  6
CONTINUOUS
  0
LAYER
  2
153
 70
    64
 62
     7
  6
CONTINUOUS
  0
LAYER
  2
154
 70
    64
 62
     7
  6
CONTINUOUS
  0
LAYER
  2
155
 70
    64
 62
     7
  6
CONTINUOUS
  0
LAYER
  2
156
 70
    64
 62
     7
  6
CONTINUOUS
  0
LAYER
  2
157
 70
    64
 62
     7
  6
CONTINUOUS
  0
LAYER
  2
158
 70
    64
 62
     7
  6
CONTINUOUS
  0
LAYER
  2
159
 70
    64
 62
     7
  6
CONTINUOUS
  0
LAYER
  2
160
 70
    64
 62
     7
  6
CONTINUOUS
  0
LAYER
  2
161
 70
    64
 62
     7
  6
CONTINUOUS
  0
LAYER
  2
162
 70
    64
 62
     7
  6
CONTINUOUS
  0
LAYER
  2
163
 70
    64
 62
     7
  6
CONTINUOUS
  0
LAYER
  2
164
 70
    64
 62
     7
  6
CONTINUOUS
  0
LAYER
  2
165
 70
    64
 62
     7
  6
CONTINUOUS
  0
LAYER
  2
166
 70
    64
 62
     7
  6
CONTINUOUS
  0
LAYER
  2
167
 70
    64
 62
     7
  6
CONTINUOUS
  0
LAYER
  2
168
 70
    64
 62
     7
  6
CONTINUOUS
  0
LAYER
  2
169
 70
    64
 62
     7
  6
CONTINUOUS
  0
LAYER
  2
170
 70
    64
 62
     7
  6
CONTINUOUS
  0
LAYER
  2
171
 70
    64
 62
     7
  6
CONTINUOUS
  0
LAYER
  2
172
 70
    64
 62
     7
  6
CONTINUOUS
  0
LAYER
  2
173
 70
    64
 62
     7
  6
CONTINUOUS
  0
LAYER
  2
174
 70
    64
 62
     7
  6
CONTINUOUS
  0
LAYER
  2
175
 70
    64
 62
     7
  6
CONTINUOUS
  0
LAYER
  2
176
 70
    64
 62
     7
  6
CONTINUOUS
  0
LAYER
  2
177
 70
    64
 62
     7
  6
CONTINUOUS
  0
LAYER
  2
178
 70
    64
 62
     7
  6
CONTINUOUS
  0
LAYER
  2
179
 70
    64
 62
     7
  6
CONTINUOUS
  0
LAYER
  2
180
 70
    64
 62
     7
  6
CONTINUOUS
  0
LAYER
  2
181
 70
    64
 62
     7
  6
CONTINUOUS
  0
LAYER
  2
182
 70
    64
 62
     7
  6
CONTINUOUS
  0
LAYER
  2
183
 70
    64
 62
     7
  6
CONTINUOUS
  0
LAYER
  2
184
 70
    64
 62
     7
  6
CONTINUOUS
  0
LAYER
  2
185
 70
    64
 62
     7
  6
CONTINUOUS
  0
LAYER
  2
186
 70
    64
 62
     7
  6
CONTINUOUS
  0
LAYER
  2
187
 70
    64
 62
     7
  6
CONTINUOUS
  0
LAYER
  2
188
 70
    64
 62
     7
  6
CONTINUOUS
  0
LAYER
  2
189
 70
    64
 62
     7
  6
CONTINUOUS
  0
LAYER
  2
190
 70
    64
 62
     7
  6
CONTINUOUS
  0
LAYER
  2
191
 70
    64
 62
     7
  6
CONTINUOUS
  0
LAYER
  2
192
 70
    64
 62
     7
  6
CONTINUOUS
  0
LAYER
  2
193
 70
    64
 62
     7
  6
CONTINUOUS
  0
LAYER
  2
194
 70
    64
 62
     7
  6
CONTINUOUS
  0
LAYER
  2
195
 70
    64
 62
     7
  6
CONTINUOUS
  0
LAYER
  2
196
 70
    64
 62
     7
  6
CONTINUOUS
  0
LAYER
  2
197
 70
    64
 62
     7
  6
CONTINUOUS
  0
LAYER
  2
198
 70
    64
 62
     7
  6
CONTINUOUS
  0
LAYER
  2
199
 70
    64
 62
     7
  6
CONTINUOUS
  0
LAYER
  2
200
 70
    64
 62
     7
  6
CONTINUOUS
  0
LAYER
  2
201
 70
    64
 62
     7
  6
CONTINUOUS
  0
LAYER
  2
202
 70
    64
 62
     7
  6
CONTINUOUS
  0
LAYER
  2
203
 70
    64
 62
     7
  6
CONTINUOUS
  0
LAYER
  2
204
 70
    64
 62
     7
  6
CONTINUOUS
  0
LAYER
  2
205
 70
    64
 62
     7
  6
CONTINUOUS
  0
LAYER
  2
206
 70
    64
 62
     7
  6
CONTINUOUS
  0
LAYER
  2
207
 70
    64
 62
     7
  6
CONTINUOUS
  0
LAYER
  2
208
 70
    64
 62
     7
  6
CONTINUOUS
  0
LAYER
  2
209
 70
    64
 62
     7
  6
CONTINUOUS
  0
LAYER
  2
210
 70
    64
 62
     7
  6
CONTINUOUS
  0
LAYER
  2
211
 70
    64
 62
     7
  6
CONTINUOUS
  0
LAYER
  2
212
 70
    64
 62
     7
  6
CONTINUOUS
  0
LAYER
  2
213
 70
    64
 62
     7
  6
CONTINUOUS
  0
LAYER
  2
214
 70
    64
 62
     7
  6
CONTINUOUS
  0
LAYER
  2
215
 70
    64
 62
     7
  6
CONTINUOUS
  0
LAYER
  2
216
 70
    64
 62
     7
  6
CONTINUOUS
  0
LAYER
  2
217
 70
    64
 62
     7
  6
CONTINUOUS
  0
LAYER
  2
218
 70
    64
 62
     7
  6
CONTINUOUS
  0
LAYER
  2
219
 70
    64
 62
     7
  6
CONTINUOUS
  0
LAYER
  2
220
 70
    64
 62
     7
  6
CONTINUOUS
  0
LAYER
  2
221
 70
    64
 62
     7
  6
CONTINUOUS
  0
LAYER
  2
222
 70
    64
 62
     7
  6
CONTINUOUS
  0
LAYER
  2
223
 70
    64
 62
     7
  6
CONTINUOUS
  0
LAYER
  2
224
 70
    64
 62
     7
  6
CONTINUOUS
  0
LAYER
  2
225
 70
    64
 62
     7
  6
CONTINUOUS
  0
LAYER
  2
226
 70
    64
 62
     7
  6
CONTINUOUS
  0
LAYER
  2
227
 70
    64
 62
     7
  6
CONTINUOUS
  0
LAYER
  2
228
 70
    64
 62
     7
  6
CONTINUOUS
  0
LAYER
  2
229
 70
    64
 62
     7
  6
CONTINUOUS
  0
LAYER
  2
230
 70
    64
 62
     7
  6
CONTINUOUS
  0
LAYER
  2
231
 70
    64
 62
     7
  6
CONTINUOUS
  0
LAYER
  2
232
 70
    64
 62
     7
  6
CONTINUOUS
  0
LAYER
  2
233
 70
    64
 62
     7
  6
CONTINUOUS
  0
LAYER
  2
234
 70
    64
 62
     7
  6
CONTINUOUS
  0
LAYER
  2
235
 70
    64
 62
     7
  6
CONTINUOUS
  0
LAYER
  2
236
 70
    64
 62
     7
  6
CONTINUOUS
  0
LAYER
  2
237
 70
    64
 62
     7
  6
CONTINUOUS
  0
LAYER
  2
238
 70
    64
 62
     7
  6
CONTINUOUS
  0
LAYER
  2
239
 70
    64
 62
     7
  6
CONTINUOUS
  0
LAYER
  2
240
 70
    64
 62
     7
  6
CONTINUOUS
  0
LAYER
  2
241
 70
    64
 62
     7
  6
CONTINUOUS
  0
LAYER
  2
242
 70
    64
 62
     7
  6
CONTINUOUS
  0
LAYER
  2
243
 70
    64
 62
     7
  6
CONTINUOUS
  0
LAYER
  2
244
 70
    64
 62
     7
  6
CONTINUOUS
  0
LAYER
  2
245
 70
    64
 62
     7
  6
CONTINUOUS
  0
LAYER
  2
246
 70
    64
 62
     7
  6
CONTINUOUS
  0
LAYER
  2
247
 70
    64
 62
     7
  6
CONTINUOUS
  0
LAYER
  2
248
 70
    64
 62
     7
  6
CONTINUOUS
  0
LAYER
  2
249
 70
    64
 62
     7
  6
CONTINUOUS
  0
LAYER
  2
250
 70
    64
 62
     7
  6
CONTINUOUS
  0
LAYER
  2
251
 70
    64
 62
     7
  6
CONTINUOUS
  0
LAYER
  2
252
 70
    64
 62
     7
  6
CONTINUOUS
  0
LAYER
  2
253
 70
    64
 62
     7
  6
CONTINUOUS
  0
LAYER
  2
254
 70
    64
 62
     7
  6
CONTINUOUS
  0
LAYER
  2
255
 70
    64
 62
     7
  6
CONTINUOUS
  0
ENDTAB
  0
TABLE
  2
STYLE
 70
     2
  0
STYLE
  2
STANDARD
 70
    64
 40
0.0
 41
1.0
 50
0.0
 71
     0
 42
3.000000
  3
TXT
  4
BIGFONT
  0
ENDTAB
  0
ENDSEC
  0
SECTION
  2
ENTITIES
  0
LINE
  8
0
  6
CONTINUOUS
 62
     2
 10
 23.080975829262918
 20
-7.2095001938590482
 11
 35.580966292519747
 21
-7.2095001938590482
  0
LINE
  8
0
  6
CONTINUOUS
 62
     2
 10
 35.580966292519747
 20
-7.2095001938590482
 11
 35.580966292519747
 21
-17.793093640304537
  0
LINE
  8
0
  6
CONTINUOUS
 62
     2
 10
 33.830966292519747
 20
-17.793093640304537
 11
 33.830966292519747
 21
-19.685483036487913
  0
LINE
  8
0
  6
CONTINUOUS
 62
     2
 10
 33.830966292519747
 20
-19.685483036487913
 11
 24.830981551308813
 21
-19.685483036487913
  0
LINE
  8
0
  6
CONTINUOUS
 62
     2
 10
 24.830981551308813
 20
-19.685483036487913
 11
 24.830981551308813
 21
-17.793093640304537
  0
LINE
  8
0
  6
CONTINUOUS
 62
     2
 10
 23.080968199868384
 20
-17.793093640304537
 11
 23.080975829262918
 21
-7.2095001938590482
  0
LINE
  8
0
  6
CONTINUOUS
 62
     2
 10
 23.080975829262918
 20
-7.5913975305312977
 11
 35.580966292519747
 21
-7.5913975305312977
  0
LINE
  8
0
  6
CONTINUOUS
 62
     2
 10
 23.080968199868384
 20
-10.585483036488046
 11
 35.580958663125216
 21
-10.585483036488046
  0
LINE
  8
0
  6
CONTINUOUS
 62
     2
 10
 23.080968199868384
 20
-12.485483036488045
 11
 35.580958663125216
 21
-12.485483036488045
  0
LINE
  8
0
  6
DOT
 62
     2
 10
 23.080968199868384
 20
-13.285479993670931
 11
 35.580958663125216
 21
-13.285479993670931
  0
LINE
  8
0
  6
DOT
 62
     2
 10
 24.830981551308813
 20
-19.285483036487914
 11
 33.830966292519747
 21
-19.285483036487914
  0
LINE
  8
0
  6
CONTINUOUS
 62
     2
 10
 23.080968199868384
 20
-17.793093640304537
 11
 24.830981551308813
 21
-17.793093640304537
  0
LINE
  8
0
  6
CONTINUOUS
 62
     2
 10
 33.830966292519747
 20
-17.793093640304537
 11
 35.580966292519747
 21
-17.793093640304537
  0
LINE
  8
0
  6
DASHDOT
 62
     2
 10
 29.330973921914286
 20
-3.6854830364880229
 11
 29.330966292519751
 21
-22.185483036487909
  0
LINE
  8
0
  6
DOT
 62
     2
 10
 26.830966292519751
 20
-19.685483036487913
 11
 26.830966292519751
 21
-19.285483036487914
  0
LINE
  8
0
  6
DOT
 62
     2
 10
 31.830966292519751
 20
-19.285483036487914
 11
 31.830966292519751
 21
-19.685483036487913
  0
LINE
  8
0
  6
CONTINUOUS
 62
     2
 10
-32.762936295370878
 20
 31.618312301189089
 11
-20.262936295370881
 21
 31.618312301189089
  0
LINE
  8
0
  6
DOT
 62
     2
 10
-20.262936295370881
 20
 31.618312301189089
 11
-17.362936295370872
 21
 31.618312301189089
  0
LINE
  8
0
  6
CONTINUOUS
 62
     2
 10
-20.262936295370881
 20
 33.368312301189093
 11
-12.399459695798523
 21
 33.368312301189093
  0
LINE
  8
0
  6
CONTINUOUS
 62
     2
 10
-32.762936295370878
 20
 22.618312301189089
 11
-20.262936295370881
 21
 22.618312301189089
  0
ARC
  8
0
  6
CONTINUOUS
 62
     2
 10
-32.762936295370878
 20
 26.618312301189089
 40
 4
 50
-179.9999980615126
 51
-90.000000851989171
  0
LINE
  8
0
  6
DOT
 62
     2
 10
-20.262936295370881
 20
 22.618312301189089
 11
-17.362936295370872
 21
 22.618312301189089
  0
LINE
  8
0
  6
CONTINUOUS
 62
     2
 10
-20.262936295370881
 20
 20.86831993058362
 11
-12.399459695798523
 21
 20.86831993058362
  0
LINE
  8
0
  6
CONTINUOUS
 62
     2
 10
-36.762936295370878
 20
 27.618312301189089
 11
-36.762936295370878
 21
 26.618312301189089
  0
ARC
  8
0
  6
CONTINUOUS
 62
     2
 10
-32.762936295370878
 20
 27.618312301189089
 40
 4
 50
 90.000004039712721
 51
-179.9999980615126
  0
LINE
  8
0
  6
CONTINUOUS
 62
     2
 10
-7.2804873282393601
 20
 28.368312301189089
 11
-7.2804873282393601
 21
 25.86831993058362
  0
LINE
  8
0
  6
CONTINUOUS
 62
     2
 10
-7.399459695798523
 20
 25.86831993058362
 11
-7.399459695798523
 21
 28.368312301189089
  0
ARC
  8
0
  6
CONTINUOUS
 62
     2
 10
-12.399459695798523
 20
 25.86831993058362
 40
 5
 50
-90.000000851989171
 51
 0
  0
ARC
  8
0
  6
CONTINUOUS
 62
     2
 10
-12.399459695798523
 20
 28.368312301189089
 40
 5
 50
 0
 51
 90.000004039712721
  0
LINE
  8
0
  6
CONTINUOUS
 62
     2
 10
-20.262936295370881
 20
 33.368312301189093
 11
-20.262936295370881
 21
 20.86831993058362
  0
LINE
  8
0
  6
DOT
 62
     2
 10
-19.862936295370883
 20
 33.368312301189093
 11
-19.862936295370883
 21
 20.86831993058362
  0
LINE
  8
0
  6
DOT
 62
     2
 10
-17.362936295370872
 20
 33.368312301189093
 11
-17.362936295370872
 21
 20.86831993058362
  0
LINE
  8
0
  6
DOT
 62
     2
 10
-17.762936295370871
 20
 33.368312301189093
 11
-17.762936295370871
 21
 20.86831993058362
  0
LINE
  8
0
  6
DASHDOT
 62
     2
 10
-39.262936295370878
 20
 27.11831993058362
 11
-4.617692324404846
 21
 27.11831993058362
  0
ARC
  8
0
  6
CONTINUOUS
 62
     2
 10
-12.28048732823936
 20
 25.86831993058362
 40
 5
 50
-90.681679082744623
 51
 0
  0
ARC
  8
0
  6
CONTINUOUS
 62
     2
 10
-12.28048732823936
 20
 28.368312301189089
 40
 5
 50
 0
 51
 90.681679082744608
  0
LINE
  8
0
  6
CONTINUOUS
 62
     3
 10
-35.762936295370878
 20
 28.61831993058362
 11
-28.555178345541773
 21
 28.61831993058362
  0
LINE
  8
0
  6
CONTINUOUS
 62
     3
 10
-28.578281972812437
 20
 28.61831993058362
 11
-28.578281972812437
 21
 25.61831993058362
  0
LINE
  8
0
  6
CONTINUOUS
 62
     3
 10
-28.555178345541773
 20
 25.61831993058362
 11
-35.762936295370878
 21
 25.61831993058362
  0
LINE
  8
0
  6
CONTINUOUS
 62
     3
 10
-35.262936295370878
 20
 28.518321456462527
 11
-35.262936295370878
 21
 25.718318404704714
  0
LINE
  8
0
  6
CONTINUOUS
 62
     3
 10
-28.637983465349773
 20
 28.61831993058362
 11
-28.637983465349773
 21
 25.618323745280886
  0
LINE
  8
0
  6
CONTINUOUS
 62
     2
 10
-28.555178345541773
 20
 28.61831993058362
 11
-28.555178345541773
 21
 25.61831993058362
  0
LINE
  8
0
  6
CONTINUOUS
 62
     2
 10
-36.762936295370864
 20
-19.285483036487918
 11
-18.562936295370868
 21
-19.28548303648796
  0
LINE
  8
0
  6
CONTINUOUS
 62
     2
 10
-18.562936295370871
 20
-19.685483036487916
 11
-36.762936295370864
 21
-19.685483036487913
  0
ARC
  8
0
  6
CONTINUOUS
 62
     2
 10
-18.562936295370871
 20
-18.485483036487917
 40
 1.2
 50
-90.000001535234532
 51
 0
  0
LINE
  8
0
  6
CONTINUOUS
 62
     2
 10
-36.762936295370864
 20
-19.685483036487913
 11
-36.762936295370864
 21
-19.285483036487918
  0
LINE
  8
0
  6
DOT
 62
     2
 10
-28.66293629537088
 20
-19.685483036487913
 11
-28.66293629537088
 21
-19.285483036487943
  0
LINE
  8
0
  6
CONTINUOUS
 62
     2
 10
-17.362936295370872
 20
-18.485483036487917
 11
-17.362936295370872
 21
-14.01852479303227
  0
ARC
  8
0
  6
CONTINUOUS
 62
     2
 10
-18.562936295370871
 20
-14.01852479303227
 40
 1.2
 50
 0
 51
 76.953311622956264
  0
LINE
  8
0
  6
CONTINUOUS
 62
     2
 10
-17.76293629537086
 20
-18.485483036487963
 11
-17.76293629537086
 21
-14.020612676730169
  0
ARC
  8
0
  6
CONTINUOUS
 62
     2
 10
-18.562936295370861
 20
-18.485483036487963
 40
 0.8
 50
-90.000001535234674
 51
 0
  0
ARC
  8
0
  6
CONTINUOUS
 62
     2
 10
-18.562936295370861
 20
-14.020612676730169
 40
 0.8
 50
 0
 51
 76.892970044417709
  0
LINE
  8
0
  6
DOT
 62
     2
 10
-35.762936295370864
 20
-19.685483036487913
 11
-35.762936295370864
 21
-19.285483036487918
  0
LINE
  8
0
  6
CONTINUOUS
 62
     2
 10
-35.262936295370878
 20
-19.285483036487918
 11
-28.737983465349775
 21
-18.285483036487847
  0
LINE
  8
0
  6
CONTINUOUS
 62
     2
 10
-28.678281972812439
 20
-18.681002608429409
 11
-28.737983465349775
 21
-18.285483036487847
  0
LINE
  8
0
  6
CONTINUOUS
 62
     2
 10
-20.262936295370881
 20
-11.850696932215293
 11
-20.262936295370881
 21
-11.455055984345691
  0
ARC
  8
0
  6
CONTINUOUS
 62
     2
 10
-18.762936295370881
 20
-11.455055984345691
 40
 1.5
 50
 103.34578952051902
 51
 180.00000307046903
  0
LINE
  8
0
  6
CONTINUOUS
 62
     2
 10
-19.862936295370876
 20
-11.849666324307153
 11
-19.862936295370876
 21
-11.455055984345686
  0
ARC
  8
0
  6
CONTINUOUS
 62
     2
 10
-18.762936295370867
 20
-11.455055984345686
 40
 1.1000000000000001
 50
 103.34578952051913
 51
 180.00000307046903
  0
LINE
  8
0
  6
CONTINUOUS
 62
     2
 10
-18.381519630685585
 20
-13.241454160268681
 11
-19.335061292398795
 21
-13.019434706907528
  0
ARC
  8
0
  6
CONTINUOUS
 62
     2
 10
-19.062936295370879
 20
-11.850696932215293
 40
 1.2
 50
 180.00000307046903
 51
-103.1070330260514
  0
LINE
  8
0
  6
CONTINUOUS
 62
     2
 10
-7.3728182789382544
 20
-7.2113011270473777
 11
-19.10917736049176
 21
-9.995563906661145
  0
LINE
  8
0
  6
CONTINUOUS
 62
     2
 10
-19.016846409792855
 20
-10.384761794043687
 11
-7.2804873282393601
 21
-7.6004990144299018
  0
LINE
  8
0
  6
CONTINUOUS
 62
     2
 10
-7.2804873282393601
 20
-7.6004990144299054
 11
-7.3728182789382544
 21
-7.2113011270473777
  0
LINE
  8
0
  6
DOT
 62
     2
 10
-9.318807715850987
 20
-7.6729558805418883
 11
-9.2264767651520891
 21
-8.0621537679244142
  0
LINE
  8
0
  6
DOT
 62
     2
 10
-13.689869693051854
 20
-8.7099201627300307
 11
-13.597538742352956
 21
-9.0991180501125601
  0
LINE
  8
0
  6
CONTINUOUS
 62
     2
 10
-17.76293629537086
 20
-17.785483036488028
 11
-17.362936295370872
 21
-17.785483036488028
  0
TEXT
  8
0
  6
CONTINUOUS
 62
     7
 10
-40.782936295370845
 20
-26.705483036488022
 11
-37.642936295370845
 21
-26.705483036488022
 40
 1.1000000000000001
 41
 0.8
  1
１．５
 50
 0
 72
  5
  0
LINE
  8
0
  6
CONTINUOUS
 62
     7
 10
-41.662936295370855
 20
-27.185483036488026
 11
-36.762936295370864
 21
-27.185483036488026
  0
LINE
  8
0
  6
CONTINUOUS
 62
     7
 10
-36.762936295370864
 20
-27.185483036488026
 11
-38.211825034804463
 21
-26.797254468834247
  0
LINE
  8
0
  6
CONTINUOUS
 62
     7
 10
-36.762936295370864
 20
-27.185483036488026
 11
-38.211825034804463
 21
-27.573711604141806
  0
LINE
  8
0
  6
CONTINUOUS
 62
     7
 10
-16.968810944531352
 20
-19.68548303648803
 11
 3.2805403042014349
 21
-19.68548303648803
  0
LINE
  8
0
  6
CONTINUOUS
 62
     7
 10
-37.762936295370878
 20
-19.285483036487918
 11
-44.742936295370868
 21
-19.285483036487918
  0
LINE
  8
0
  6
CONTINUOUS
 62
     7
 10
-44.262936295370864
 20
-19.685483036487913
 11
-44.262936295370864
 21
-19.285483036487918
  0
TEXT
  8
0
  6
CONTINUOUS
 62
     7
 10
-44.74293629537086
 20
-23.705483036487912
 11
-44.74293629537086
 21
-20.565483036487912
 40
 1.1000000000000001
 41
 0.8
  1
０．４
 50
 90.000001535234517
 72
  5
  0
LINE
  8
0
  6
CONTINUOUS
 62
     7
 10
-44.262936295370864
 20
-24.585483036487922
 11
-44.262936295370864
 21
-19.685483036487913
  0
LINE
  8
0
  6
CONTINUOUS
 62
     7
 10
-44.262936295370864
 20
-19.685483036487913
 11
-44.651164863024647
 21
-21.134371775921515
  0
LINE
  8
0
  6
CONTINUOUS
 62
     7
 10
-44.262936295370864
 20
-19.685483036487913
 11
-43.87470772771708
 21
-21.134371775921515
  0
LINE
  8
0
  6
CONTINUOUS
 62
     7
 10
-44.262936295370864
 20
-16.785483036487925
 11
-44.262936295370864
 21
-19.285483036487918
  0
LINE
  8
0
  6
CONTINUOUS
 62
     7
 10
-44.262936295370864
 20
-19.285483036487918
 11
-43.87470772771708
 21
-17.836594297054315
  0
LINE
  8
0
  6
CONTINUOUS
 62
     7
 10
-44.262936295370864
 20
-19.285483036487918
 11
-44.651164863024647
 21
-17.836594297054315
  0
LINE
  8
0
  6
CONTINUOUS
 62
     7
 10
 34.830966292519747
 20
-19.685483036487913
 11
 41.060966292519751
 21
-19.685483036487913
  0
LINE
  8
0
  6
CONTINUOUS
 62
     7
 10
 36.580966292519747
 20
-17.793093640304537
 11
 41.060966292519751
 21
-17.793093640304537
  0
LINE
  8
0
  6
CONTINUOUS
 62
     7
 10
 40.580966292519754
 20
-23.525483036487909
 11
 40.580966292519754
 21
-19.685483036487913
  0
LINE
  8
0
  6
CONTINUOUS
 62
     7
 10
 40.580966292519754
 20
-19.685483036487913
 11
 40.192737724865971
 21
-21.134371775921515
  0
LINE
  8
0
  6
CONTINUOUS
 62
     7
 10
 40.580966292519754
 20
-19.685483036487913
 11
 40.969194860173538
 21
-21.134371775921515
  0
LINE
  8
0
  6
CONTINUOUS
 62
     7
 10
 40.580966292519754
 20
-19.685483036487913
 11
 40.580966292519754
 21
-17.793093640304537
  0
TEXT
  8
0
  6
CONTINUOUS
 62
     7
 10
 40.100966292519757
 20
-16.913093640304542
 11
 40.100966292519757
 21
-14.05854818575909
 40
 1
 41
 0.8
  1
１．９
 50
 90.000001535234517
 72
  5
  0
LINE
  8
0
  6
CONTINUOUS
 62
     7
 10
 40.580966292519754
 20
-13.258548185759082
 11
 40.580966292519754
 21
-17.793093640304537
  0
LINE
  8
0
  6
CONTINUOUS
 62
     7
 10
 40.580966292519754
 20
-17.793093640304537
 11
 40.969194860173538
 21
-16.344204900870935
  0
LINE
  8
0
  6
CONTINUOUS
 62
     7
 10
 40.580966292519754
 20
-17.793093640304537
 11
 40.192737724865971
 21
-16.344204900870935
  0
ARC
  8
0
  6
CONTINUOUS
 62
     2
 10
 29.330973921914286
 20
-13.621908552567069
 40
 5.4356491842399102
 50
 67.906855751316442
 51
 112.09305972107397
  0
ARC
  8
0
  6
CONTINUOUS
 62
     2
 10
 29.330981551308813
 20
-3.6415043844267601
 40
 5.4356491842399102
 50
-112.09314731915258
 51
-67.906943349395021
  0
ARC
  8
0
  6
CONTINUOUS
 62
     2
 10
 27.305366644662016
 20
-8.6317049200439762
 40
 0.05
 50
 112.09305972107316
 51
-112.09314731915227
  0
ARC
  8
0
  6
CONTINUOUS
 62
     2
 10
 31.35658882856108
 20
-8.6317080169498581
 40
 0.05
 50
-67.906943349395888
 51
 67.906855751316741
  0
ARC
  8
0
  6
CONTINUOUS
 62
     2
 10
 29.330989180703344
 20
-3.259607047759884
 40
 5.4356491842399102
 50
-107.60215412661002
 51
-72.398017683251169
  0
ARC
  8
0
  6
CONTINUOUS
 62
     2
 10
-11.633852645293153
 20
 27.11831993058362
 40
 2.3249062661333464
 50
-44.061964167356628
 51
 44.061964167356606
  0
ARC
  8
0
  6
CONTINUOUS
 62
     2
 10
-11.457118897941271
 20
 27.289359484880617
 40
 2.0789604457030042
 50
 44.061964167356606
 51
 135.93803890311241
  0
ARC
  8
0
  6
CONTINUOUS
 62
     2
 10
-11.280385150589385
 20
 27.11831993058362
 40
 2.3249062661333464
 50
 135.93803890311241
 51
-135.93803890311241
  0
ARC
  8
0
  6
CONTINUOUS
 62
     2
 10
-11.457118897941271
 20
 26.947280376286624
 40
 2.0789604457030042
 50
-135.93803890311241
 51
-44.061964167356628
  0
ARC
  8
0
  6
CONTINUOUS
 62
     2
 10
-11.338146530382105
 20
 27.289359484880617
 40
 2.0789604457030042
 50
 91.639653980809385
 51
 135.93803890311241
  0
ARC
  8
0
  6
CONTINUOUS
 62
     2
 10
-11.161412783030219
 20
 27.11831993058362
 40
 2.3249062661333464
 50
 135.93803890311241
 51
-135.93803890311241
  0
ARC
  8
0
  6
CONTINUOUS
 62
     2
 10
-11.338146530382105
 20
 26.947280376286624
 40
 2.0789604457030042
 50
-135.93803890311241
 51
-91.639653980809442
  0
LINE
  8
0
  6
DOT
 62
     2
 10
-35.232917427379078
 20
-19.685483036487899
 11
-32.782936295370916
 21
-19.285483036487925
  0
LINE
  8
0
  6
CONTINUOUS
 62
     2
 10
-32.782936295370916
 20
-19.285483036487932
 11
-28.678281972812439
 21
-18.681002608429409
  0
ARC
  8
0
  6
CONTINUOUS
 62
     7
 10
-17.662936295370855
 20
-19.28548303648796
 40
 4.0143840808025715
 50
 90.000001535234219
 51
 180.00000307046892
  0
LINE
  8
0
  6
CONTINUOUS
 62
     7
 10
-17.662936295370834
 20
-15.271098955685389
 11
-19.125949776133602
 21
-14.940052803153128
  0
LINE
  8
0
  6
CONTINUOUS
 62
     7
 10
-17.662936295370834
 20
-15.271098955685389
 11
-19.095466212056618
 21
-15.715911318148736
  0
LINE
  8
0
  6
CONTINUOUS
 62
     7
 10
-21.677320376173427
 20
-19.285483036487953
 11
-21.232508013710071
 21
-17.852953119802173
  0
LINE
  8
0
  6
CONTINUOUS
 62
     7
 10
-21.677320376173427
 20
-19.285483036487953
 11
-22.008366528705679
 21
-17.822469555725185
  0
TEXT
  8
0
  6
CONTINUOUS
 62
     7
 10
-22.301859992454823
 20
-18.215541356579948
 11
-20.626616248972809
 21
-15.559763052593643
 40
 1.1000000000000001
 41
 0.8
  1
90ﾟ
 50
 57.756599343518445
 72
  5
  0
LINE
  8
0
  6
CONTINUOUS
 62
     2
 10
-19.243532281636714
 20
-12.629015469263813
 11
-18.292042315972115
 21
-12.849501075597288
  0
ARC
  8
0
  6
CONTINUOUS
 62
     2
 10
-19.062936295370871
 20
-11.849666324307153
 40
 0.8
 50
 180.00000307046903
 51
-103.04669144751286
  0
LINE
  8
0
  6
CONTINUOUS
 62
     7
 10
-37.762936295370878
 20
-19.685483036487913
 11
-44.742936295370868
 21
-19.685483036487913
  0
LINE
  8
0
  6
CONTINUOUS
 62
     7
 10
-17.362936295370869
 20
-20.68548303648803
 11
-17.362936295370869
 21
-30.16548303648803
  0
LINE
  8
0
  6
CONTINUOUS
 62
     7
 10
-36.762936295370864
 20
-20.685483036487909
 11
-36.762936295370864
 21
-30.16548303648803
  0
LINE
  8
0
  6
CONTINUOUS
 62
     7
 10
-17.362936295370869
 20
-29.68548303648803
 11
-36.762936295370864
 21
-29.68548303648803
  0
LINE
  8
0
  6
CONTINUOUS
 62
     7
 10
-17.362936295370869
 20
-29.68548303648803
 11
-18.811825034804471
 21
-29.29725446883425
  0
LINE
  8
0
  6
CONTINUOUS
 62
     7
 10
-17.362936295370869
 20
-29.68548303648803
 11
-18.811825034804471
 21
-30.07371160414181
  0
LINE
  8
0
  6
CONTINUOUS
 62
     7
 10
-36.762936295370864
 20
-29.68548303648803
 11
-35.314047555937265
 21
-30.07371160414181
  0
LINE
  8
0
  6
CONTINUOUS
 62
     7
 10
-36.762936295370864
 20
-29.68548303648803
 11
-35.314047555937265
 21
-29.29725446883425
  0
TEXT
  8
0
  6
CONTINUOUS
 62
     7
 10
-29.762936295370871
 20
-29.205483036488022
 11
-25.492936295370871
 21
-29.205483036488022
 40
 1.1000000000000001
 41
 0.8
  1
19.4
 50
 0
 72
  5
  0
LINE
  8
0
  6
CONTINUOUS
 62
     7
 10
 24.830981551308813
 20
-20.685483036487909
 11
 24.830981551308813
 21
-25.165483036487913
  0
LINE
  8
0
  6
CONTINUOUS
 62
     7
 10
 33.830966292519747
 20
-20.685483036487909
 11
 33.830966292519747
 21
-25.165483036487913
  0
LINE
  8
0
  6
CONTINUOUS
 62
     7
 10
 24.830981551308813
 20
-24.685483036487916
 11
 33.830966292519747
 21
-24.685483036487916
  0
LINE
  8
0
  6
CONTINUOUS
 62
     7
 10
 24.830981551308813
 20
-24.685483036487916
 11
 26.279870290742416
 21
-25.073711604141696
  0
LINE
  8
0
  6
CONTINUOUS
 62
     7
 10
 24.830981551308813
 20
-24.685483036487916
 11
 26.279870290742416
 21
-24.297254468834137
  0
LINE
  8
0
  6
CONTINUOUS
 62
     7
 10
 33.830966292519747
 20
-24.685483036487916
 11
 32.382077553086148
 21
-24.297254468834137
  0
LINE
  8
0
  6
CONTINUOUS
 62
     7
 10
 33.830966292519747
 20
-24.685483036487916
 11
 32.382077553086148
 21
-25.073711604141696
  0
TEXT
  8
0
  6
CONTINUOUS
 62
     7
 10
 28.930973921914287
 20
-24.205483036487912
 11
 29.730973921914288
 21
-24.205483036487912
 40
 1
 41
 0.8
  1
9
 50
 0
 72
  5
  0
LINE
  8
0
  6
CONTINUOUS
 62
     7
 10
 23.080968199868384
 20
-5.1854830364880211
 11
 23.080968199868384
 21
-0.7054830364880189
  0
LINE
  8
0
  6
CONTINUOUS
 62
     7
 10
 35.580966292519747
 20
-5.1854830364880211
 11
 35.580966292519747
 21
-0.7054830364880189
  0
LINE
  8
0
  6
CONTINUOUS
 62
     7
 10
 23.080968199868384
 20
-1.1854830364880211
 11
 35.580966292519747
 21
-1.1854830364880211
  0
LINE
  8
0
  6
CONTINUOUS
 62
     7
 10
 23.080968199868384
 20
-1.1854830364880211
 11
 24.529856939301986
 21
-1.5737116041418022
  0
LINE
  8
0
  6
CONTINUOUS
 62
     7
 10
 23.080968199868384
 20
-1.1854830364880211
 11
 24.529856939301986
 21
-0.79725446883424
  0
LINE
  8
0
  6
CONTINUOUS
 62
     7
 10
 35.580966292519747
 20
-1.1854830364880211
 11
 34.132077553086148
 21
-0.79725446883424
  0
LINE
  8
0
  6
CONTINUOUS
 62
     7
 10
 35.580966292519747
 20
-1.1854830364880211
 11
 34.132077553086148
 21
-1.5737116041418022
  0
TEXT
  8
0
  6
CONTINUOUS
 62
     7
 10
 27.390058155284979
 20
-0.7054830364880189
 11
 31.271876337103162
 21
-0.7054830364880189
 40
 1
 41
 0.8
  1
12.5
 50
 0
 72
  5
  0
LINE
  8
0
  6
CONTINUOUS
 62
     7
 10
-37.762936295370878
 20
 31.618312301189089
 11
-44.711564223173681
 21
 31.618312301189089
  0
LINE
  8
0
  6
CONTINUOUS
 62
     7
 10
-37.762936295370878
 20
 22.618312301189089
 11
-44.711564223173681
 21
 22.618312301189089
  0
LINE
  8
0
  6
CONTINUOUS
 62
     7
 10
-44.231564223173692
 20
 31.618312301189089
 11
-44.231564223173692
 21
 22.618312301189089
  0
LINE
  8
0
  6
CONTINUOUS
 62
     7
 10
-44.231564223173692
 20
 31.618312301189089
 11
-44.619792790827475
 21
 30.169423561755487
  0
LINE
  8
0
  6
CONTINUOUS
 62
     7
 10
-44.231564223173692
 20
 31.618312301189089
 11
-43.843335655519908
 21
 30.169423561755487
  0
LINE
  8
0
  6
CONTINUOUS
 62
     7
 10
-44.231564223173692
 20
 22.618312301189089
 11
-43.843335655519908
 21
 24.067201040622692
  0
LINE
  8
0
  6
CONTINUOUS
 62
     7
 10
-44.231564223173692
 20
 22.618312301189089
 11
-44.619792790827475
 21
 24.067201040622692
  0
TEXT
  8
0
  6
CONTINUOUS
 62
     7
 10
-44.711564223173689
 20
 26.678312301189091
 11
-44.711564223173696
 21
 27.558312301189094
 40
 1.1000000000000001
 41
 0.8
  1
9
 50
 90.000001535234517
 72
  5
  0
LINE
  8
0
  6
CONTINUOUS
 62
     7
 10
-5.5804873282393981
 20
 33.368312301189079
 11
 3.2805403042014483
 21
 33.368312301189079
  0
LINE
  8
0
  6
CONTINUOUS
 62
     7
 10
-6.0804873282393945
 20
 20.86831993058362
 11
 3.2805403042014483
 21
 20.86831993058362
  0
LINE
  8
0
  6
CONTINUOUS
 62
     7
 10
 2.8005403042014478
 20
 33.368312301189079
 11
 2.8005403042014478
 21
 20.86831993058362
  0
LINE
  8
0
  6
CONTINUOUS
 62
     7
 10
 2.8005403042014478
 20
 33.368312301189079
 11
 2.4123117365476667
 21
 31.919423561755476
  0
LINE
  8
0
  6
CONTINUOUS
 62
     7
 10
 2.8005403042014478
 20
 33.368312301189079
 11
 3.1887688718552289
 21
 31.919423561755476
  0
LINE
  8
0
  6
CONTINUOUS
 62
     7
 10
 2.8005403042014478
 20
 20.86831993058362
 11
 3.1887688718552289
 21
 22.317208670017223
  0
LINE
  8
0
  6
CONTINUOUS
 62
     7
 10
 2.8005403042014478
 20
 20.86831993058362
 11
 2.4123117365476667
 21
 22.317208670017223
  0
TEXT
  8
0
  6
CONTINUOUS
 62
     7
 10
 2.3205403042014479
 20
 24.983316115886353
 11
 2.3205403042014492
 21
 29.253316115886356
 40
 1.1000000000000001
 41
 0.8
  1
12.5
 50
 90.000001535234517
 72
  5
  0
LINE
  8
0
  6
CONTINUOUS
 62
     7
 10
-6.3657224239902082
 20
-7.2095001938590482
 11
 3.2805403042014483
 21
-7.2095001938590482
  0
LINE
  8
0
  6
CONTINUOUS
 62
     7
 10
 2.8005403042014478
 20
-7.2095001938590482
 11
 2.8005403042014478
 21
-19.68548303648803
  0
LINE
  8
0
  6
CONTINUOUS
 62
     7
 10
 2.8005403042014478
 20
-7.2095001938590482
 11
 2.4123117365476667
 21
-8.6583889332926507
  0
LINE
  8
0
  6
CONTINUOUS
 62
     7
 10
 2.8005403042014478
 20
-7.2095001938590482
 11
 3.1887688718552289
 21
-8.6583889332926507
  0
LINE
  8
0
  6
CONTINUOUS
 62
     7
 10
 2.8005403042014478
 20
-19.68548303648803
 11
 3.1887688718552289
 21
-18.236594297054427
  0
LINE
  8
0
  6
CONTINUOUS
 62
     7
 10
 2.8005403042014478
 20
-19.68548303648803
 11
 2.4123117365476667
 21
-18.236594297054427
  0
TEXT
  8
0
  6
CONTINUOUS
 62
     7
 10
 2.3205403042014479
 20
-15.582491615173542
 11
 2.3205403042014492
 21
-11.312491615173542
 40
 1.1000000000000001
 41
 0.8
  1
12.5
 50
 90.000001535234517
 72
  5
  0
LINE
  8
0
  6
CONTINUOUS
 62
     7
 10
-7.2804873282393601
 20
-8.9980009430845911
 11
-7.2804873282393601
 21
-30.16548303648803
  0
LINE
  8
0
  6
CONTINUOUS
 62
     7
 10
-17.362936295370869
 20
-29.68548303648803
 11
-7.2804873282393601
 21
-29.68548303648803
  0
LINE
  8
0
  6
CONTINUOUS
 62
     7
 10
-17.362936295370869
 20
-29.68548303648803
 11
-15.914047555937266
 21
-30.07371160414181
  0
LINE
  8
0
  6
CONTINUOUS
 62
     7
 10
-17.362936295370869
 20
-29.68548303648803
 11
-15.914047555937266
 21
-29.29725446883425
  0
LINE
  8
0
  6
CONTINUOUS
 62
     7
 10
-7.2804873282393601
 20
-29.68548303648803
 11
-8.7293760676729626
 21
-29.29725446883425
  0
LINE
  8
0
  6
CONTINUOUS
 62
     7
 10
-7.2804873282393601
 20
-29.68548303648803
 11
-8.7293760676729626
 21
-30.07371160414181
  0
TEXT
  8
0
  6
CONTINUOUS
 62
     7
 10
-15.021711811805114
 20
-29.20548303648803
 11
-10.751711811805114
 21
-29.20548303648803
 40
 1.1000000000000001
 41
 0.8
  1
10.1
 50
 0
 72
  5
  0
LINE
  8
256
  6
CONTINUOUS
 62
     7
 10
-99.465013404825783
 20
 65.75670064099539
 11
-49.465013404825783
 21
 65.75670064099539
  0
LINE
  8
256
  6
CONTINUOUS
 62
     7
 10
-49.465013404825783
 20
 65.756700640995405
 11
-49.465013404825783
 21
 71.75670101855269
  0
TEXT
  8
256
  6
CONTINUOUS
 62
     7
 10
-96.965013404825783
 20
 67.256700436956706
 11
-69.965013404825783
 21
 67.256700436956706
 40
 3
 41
 1
  1
ＬＢ－Ｄ７３３０Ａ
 50
 0
 72
  5
  0
LINE
  8
256
  6
CONTINUOUS
 62
     7
 10
 49.684978965779692
 20
-57.493297587131352
 11
 97.184986595174223
 21
-57.493297587131352
  0
LINE
  8
256
  6
CONTINUOUS
 62
     7
 10
 82.684978965779692
 20
-51.493297587131352
 11
 82.684978965779692
 21
-57.493297587131352
  0
TEXT
  8
256
  6
CONTINUOUS
 62
     7
 10
 53.434986595174223
 20
-63.868297587131352
 11
 71.434986595174223
 21
-63.868297587131352
 40
 3
 41
 1
  1
ＢＨＳＰ－２
 50
 0
 72
  5
  0
TEXT
  8
256
  6
CONTINUOUS
 62
     7
 10
 55.184978965779692
 20
-56.618297587131352
 11
 77.184978965779692
 21
-56.618297587131352
 40
 2.5
 41
 0.8
  1
ＭＣＣＢ固定スプリング
 50
 0
 72
  5
  0
TEXT
  8
256
  6
CONTINUOUS
 62
     7
 10
 50.334980491658598
 20
-52.968279276584454
 11
 52.834980491658598
 21
-52.968279276584454
 40
 1.25
 41
 0.8
  1
品名
 50
 0
 72
  5
  0
TEXT
  8
256
  6
CONTINUOUS
 62
     7
 10
 50.334980491658598
 20
-58.968312845920408
 11
 52.834980491658598
 21
-58.968312845920408
 40
 1.25
 41
 0.8
  1
品番
 50
 0
 72
  5
  0
LINE
  8
256
  6
CONTINUOUS
 62
     7
 10
 49.684978965779692
 20
-66.493297587131352
 11
 49.684978965779692
 21
-51.493297587131352
  0
LINE
  8
256
  6
CONTINUOUS
 62
     7
 10
 49.684978965779692
 20
-51.493297587131352
 11
 97.184986595174223
 21
-51.493297587131352
  0
LINE
  8
256
  6
CONTINUOUS
 62
     7
 10
-99.465013404825783
 20
 71.75670101855269
 11
-99.465013404825783
 21
-66.493297587131323
  0
LINE
  8
256
  6
CONTINUOUS
 62
     7
 10
-99.465013404825783
 20
 71.75670101855269
 11
 97.184986595174223
 21
 71.75670101855269
  0
LINE
  8
256
  6
CONTINUOUS
 62
     7
 10
 97.184986595174223
 20
-66.493297587131352
 11
-99.465013404825783
 21
-66.493297587131323
  0
LINE
  8
256
  6
CONTINUOUS
 62
     7
 10
 97.184986595174223
 20
 71.75670101855269
 11
 97.184986595174223
 21
-66.493297587131352
  0
ENDSEC
  0
EOF
