  0
SECTION
  2
HEADER
  9
$INSBASE
 10
0.0
20
0.0
  9
$REGENMODE
 70
     1
  9
$DRAGMODE
 70
     1
  9
$DIMTAD
 70
     1
  9
$EXTMIN
 10
-210.000000
 20
-148.500000
 30
 0.0
  9
$EXTMAX
 10
210.000000
 20
148.500000
 30
 0.0
  9
$LUPREC
 70
    3
  9
$AUPREC
 70
    3
  9
$LTSCALE
 40
26.250000
  0
ENDSEC
  0
SECTION
  2
TABLES
  0
TABLE
  2
LTYPE
 70
     6
  0
LTYPE
  2
CONTINUOUS
 70
    64
  3
SOLID
 72
    65
 73
     0
 40
0.0
  0
LTYPE
  2
DASHED2
 70
    64
  3
_ _ _ _ _ _ _ _ _ _ _ _ _ _ _ _ _ _ _ _ _ _ 
 72
    65
 73
     2
 40
0.5
 49
0.25
 49
-0.25
  0
LTYPE
  2
DASHED
 70
    64
  3
__ __ __ __ __ __ __ __ __ __ __ __ __ __ __
 72
    65
 73
     2
 40
0.75
 49
0.5
 49
-0.25
  0
LTYPE
  2
DASHEDX2
 70
    64
  3
____  ____  ____  ____  ____  ____  ____  __
 72
    65
 73
     2
 40
1.5
 49
1.0
 49
-0.5
  0
LTYPE
  2
DOT
 70
    64
  3
............................................
 72
    65
 73
     2
 40
0.25
 49
0
 49
-0.25
  0
LTYPE
  2
DASHDOT
 70
    64
  3
__ . __ . __ . __ . __ . __ . __ . __ . __ .
 72
    65
 73
     4
 40
1.0
 49
0.5
 49
-0.25
 49
0.0
 49
-0.25
  0
LTYPE
  2
CENTER
 70
    64
  3
____ _ ____ _ ____ _ ____ _ ____ _ ____ _ __
 72
    65
 73
     4
 40
2.0
 49
1.25
 49
-0.25
 49
0.25
 49
-0.25
  0
LTYPE
  2
DIVIDE
 70
    64
  3
__ . . __ . . __ . . __ . . __ . . __ . . __
 72
    65
 73
     6
 40
1.25
 49
0.5
 49
-0.25
 49
0.0
 49
-0.25
 49
0.0
 49
-0.25
  0
LTYPE
  2
PHANTOM2
 70
    64
  3
___ _ _ ___ _ _ ___ _ _ ___ _ _ ___ _ _ ___ 
 72
    65
 73
     6
 40
1.25
 49
0.625
 49
-0.125
 49
0.125
 49
-0.125
 49
0.125
 49
-0.125
  0
LTYPE
  2
DOTX2
 70
    64
  3
. . . . . . . . . . . . . . . . . . . . . . 
 72
    65
 73
     2
 40
0.5
 49
0
 49
-0.5
  0
ENDTAB
  0
TABLE
  2
LAYER
 70
   255
  0
LAYER
  2
0
 70
    64
 62
     7
  6
CONTINUOUS
  0
LAYER
  2
1
 70
    64
 62
     7
  6
CONTINUOUS
  0
LAYER
  2
2
 70
    64
 62
     7
  6
CONTINUOUS
  0
LAYER
  2
3
 70
    64
 62
     7
  6
CONTINUOUS
  0
LAYER
  2
4
 70
    64
 62
     7
  6
CONTINUOUS
  0
LAYER
  2
5
 70
    64
 62
     7
  6
CONTINUOUS
  0
LAYER
  2
6
 70
    64
 62
     7
  6
CONTINUOUS
  0
LAYER
  2
7
 70
    64
 62
     7
  6
CONTINUOUS
  0
LAYER
  2
8
 70
    64
 62
     7
  6
CONTINUOUS
  0
LAYER
  2
9
 70
    64
 62
     7
  6
CONTINUOUS
  0
LAYER
  2
10
 70
    64
 62
     7
  6
CONTINUOUS
  0
LAYER
  2
11
 70
    64
 62
     7
  6
CONTINUOUS
  0
LAYER
  2
12
 70
    64
 62
     7
  6
CONTINUOUS
  0
LAYER
  2
13
 70
    64
 62
     7
  6
CONTINUOUS
  0
LAYER
  2
14
 70
    64
 62
     7
  6
CONTINUOUS
  0
LAYER
  2
15
 70
    64
 62
     7
  6
CONTINUOUS
  0
LAYER
  2
16
 70
    64
 62
     7
  6
CONTINUOUS
  0
LAYER
  2
17
 70
    64
 62
     7
  6
CONTINUOUS
  0
LAYER
  2
18
 70
    64
 62
     7
  6
CONTINUOUS
  0
LAYER
  2
19
 70
    64
 62
     7
  6
CONTINUOUS
  0
LAYER
  2
20
 70
    64
 62
     7
  6
CONTINUOUS
  0
LAYER
  2
21
 70
    64
 62
     7
  6
CONTINUOUS
  0
LAYER
  2
22
 70
    64
 62
     7
  6
CONTINUOUS
  0
LAYER
  2
23
 70
    64
 62
     7
  6
CONTINUOUS
  0
LAYER
  2
24
 70
    64
 62
     7
  6
CONTINUOUS
  0
LAYER
  2
25
 70
    64
 62
     7
  6
CONTINUOUS
  0
LAYER
  2
26
 70
    64
 62
     7
  6
CONTINUOUS
  0
LAYER
  2
27
 70
    64
 62
     7
  6
CONTINUOUS
  0
LAYER
  2
28
 70
    64
 62
     7
  6
CONTINUOUS
  0
LAYER
  2
29
 70
    64
 62
     7
  6
CONTINUOUS
  0
LAYER
  2
30
 70
    64
 62
     7
  6
CONTINUOUS
  0
LAYER
  2
31
 70
    64
 62
     7
  6
CONTINUOUS
  0
LAYER
  2
32
 70
    64
 62
     7
  6
CONTINUOUS
  0
LAYER
  2
33
 70
    64
 62
     7
  6
CONTINUOUS
  0
LAYER
  2
34
 70
    64
 62
     7
  6
CONTINUOUS
  0
LAYER
  2
35
 70
    64
 62
     7
  6
CONTINUOUS
  0
LAYER
  2
36
 70
    64
 62
     7
  6
CONTINUOUS
  0
LAYER
  2
37
 70
    64
 62
     7
  6
CONTINUOUS
  0
LAYER
  2
38
 70
    64
 62
     7
  6
CONTINUOUS
  0
LAYER
  2
39
 70
    64
 62
     7
  6
CONTINUOUS
  0
LAYER
  2
40
 70
    64
 62
     7
  6
CONTINUOUS
  0
LAYER
  2
41
 70
    64
 62
     7
  6
CONTINUOUS
  0
LAYER
  2
42
 70
    64
 62
     7
  6
CONTINUOUS
  0
LAYER
  2
43
 70
    64
 62
     7
  6
CONTINUOUS
  0
LAYER
  2
44
 70
    64
 62
     7
  6
CONTINUOUS
  0
LAYER
  2
45
 70
    64
 62
     7
  6
CONTINUOUS
  0
LAYER
  2
46
 70
    64
 62
     7
  6
CONTINUOUS
  0
LAYER
  2
47
 70
    64
 62
     7
  6
CONTINUOUS
  0
LAYER
  2
48
 70
    64
 62
     7
  6
CONTINUOUS
  0
LAYER
  2
49
 70
    64
 62
     7
  6
CONTINUOUS
  0
LAYER
  2
50
 70
    64
 62
     7
  6
CONTINUOUS
  0
LAYER
  2
51
 70
    64
 62
     7
  6
CONTINUOUS
  0
LAYER
  2
52
 70
    64
 62
     7
  6
CONTINUOUS
  0
LAYER
  2
53
 70
    64
 62
     7
  6
CONTINUOUS
  0
LAYER
  2
54
 70
    64
 62
     7
  6
CONTINUOUS
  0
LAYER
  2
55
 70
    64
 62
     7
  6
CONTINUOUS
  0
LAYER
  2
56
 70
    64
 62
     7
  6
CONTINUOUS
  0
LAYER
  2
57
 70
    64
 62
     7
  6
CONTINUOUS
  0
LAYER
  2
58
 70
    64
 62
     7
  6
CONTINUOUS
  0
LAYER
  2
59
 70
    64
 62
     7
  6
CONTINUOUS
  0
LAYER
  2
60
 70
    64
 62
     7
  6
CONTINUOUS
  0
LAYER
  2
61
 70
    64
 62
     7
  6
CONTINUOUS
  0
LAYER
  2
62
 70
    64
 62
     7
  6
CONTINUOUS
  0
LAYER
  2
63
 70
    64
 62
     7
  6
CONTINUOUS
  0
LAYER
  2
64
 70
    64
 62
     7
  6
CONTINUOUS
  0
LAYER
  2
65
 70
    64
 62
     7
  6
CONTINUOUS
  0
LAYER
  2
66
 70
    64
 62
     7
  6
CONTINUOUS
  0
LAYER
  2
67
 70
    64
 62
     7
  6
CONTINUOUS
  0
LAYER
  2
68
 70
    64
 62
     7
  6
CONTINUOUS
  0
LAYER
  2
69
 70
    64
 62
     7
  6
CONTINUOUS
  0
LAYER
  2
70
 70
    64
 62
     7
  6
CONTINUOUS
  0
LAYER
  2
71
 70
    64
 62
     7
  6
CONTINUOUS
  0
LAYER
  2
72
 70
    64
 62
     7
  6
CONTINUOUS
  0
LAYER
  2
73
 70
    64
 62
     7
  6
CONTINUOUS
  0
LAYER
  2
74
 70
    64
 62
     7
  6
CONTINUOUS
  0
LAYER
  2
75
 70
    64
 62
     7
  6
CONTINUOUS
  0
LAYER
  2
76
 70
    64
 62
     7
  6
CONTINUOUS
  0
LAYER
  2
77
 70
    64
 62
     7
  6
CONTINUOUS
  0
LAYER
  2
78
 70
    64
 62
     7
  6
CONTINUOUS
  0
LAYER
  2
79
 70
    64
 62
     7
  6
CONTINUOUS
  0
LAYER
  2
80
 70
    64
 62
     7
  6
CONTINUOUS
  0
LAYER
  2
81
 70
    64
 62
     7
  6
CONTINUOUS
  0
LAYER
  2
82
 70
    64
 62
     7
  6
CONTINUOUS
  0
LAYER
  2
83
 70
    64
 62
     7
  6
CONTINUOUS
  0
LAYER
  2
84
 70
    64
 62
     7
  6
CONTINUOUS
  0
LAYER
  2
85
 70
    64
 62
     7
  6
CONTINUOUS
  0
LAYER
  2
86
 70
    64
 62
     7
  6
CONTINUOUS
  0
LAYER
  2
87
 70
    64
 62
     7
  6
CONTINUOUS
  0
LAYER
  2
88
 70
    64
 62
     7
  6
CONTINUOUS
  0
LAYER
  2
89
 70
    64
 62
     7
  6
CONTINUOUS
  0
LAYER
  2
90
 70
    64
 62
     7
  6
CONTINUOUS
  0
LAYER
  2
91
 70
    64
 62
     7
  6
CONTINUOUS
  0
LAYER
  2
92
 70
    64
 62
     7
  6
CONTINUOUS
  0
LAYER
  2
93
 70
    64
 62
     7
  6
CONTINUOUS
  0
LAYER
  2
94
 70
    64
 62
     7
  6
CONTINUOUS
  0
LAYER
  2
95
 70
    64
 62
     7
  6
CONTINUOUS
  0
LAYER
  2
96
 70
    64
 62
     7
  6
CONTINUOUS
  0
LAYER
  2
97
 70
    64
 62
     7
  6
CONTINUOUS
  0
LAYER
  2
98
 70
    64
 62
     7
  6
CONTINUOUS
  0
LAYER
  2
99
 70
    64
 62
     7
  6
CONTINUOUS
  0
LAYER
  2
100
 70
    64
 62
     7
  6
CONTINUOUS
  0
LAYER
  2
101
 70
    64
 62
     7
  6
CONTINUOUS
  0
LAYER
  2
102
 70
    64
 62
     7
  6
CONTINUOUS
  0
LAYER
  2
103
 70
    64
 62
     7
  6
CONTINUOUS
  0
LAYER
  2
104
 70
    64
 62
     7
  6
CONTINUOUS
  0
LAYER
  2
105
 70
    64
 62
     7
  6
CONTINUOUS
  0
LAYER
  2
106
 70
    64
 62
     7
  6
CONTINUOUS
  0
LAYER
  2
107
 70
    64
 62
     7
  6
CONTINUOUS
  0
LAYER
  2
108
 70
    64
 62
     7
  6
CONTINUOUS
  0
LAYER
  2
109
 70
    64
 62
     7
  6
CONTINUOUS
  0
LAYER
  2
110
 70
    64
 62
     7
  6
CONTINUOUS
  0
LAYER
  2
111
 70
    64
 62
     7
  6
CONTINUOUS
  0
LAYER
  2
112
 70
    64
 62
     7
  6
CONTINUOUS
  0
LAYER
  2
113
 70
    64
 62
     7
  6
CONTINUOUS
  0
LAYER
  2
114
 70
    64
 62
     7
  6
CONTINUOUS
  0
LAYER
  2
115
 70
    64
 62
     7
  6
CONTINUOUS
  0
LAYER
  2
116
 70
    64
 62
     7
  6
CONTINUOUS
  0
LAYER
  2
117
 70
    64
 62
     7
  6
CONTINUOUS
  0
LAYER
  2
118
 70
    64
 62
     7
  6
CONTINUOUS
  0
LAYER
  2
119
 70
    64
 62
     7
  6
CONTINUOUS
  0
LAYER
  2
120
 70
    64
 62
     7
  6
CONTINUOUS
  0
LAYER
  2
121
 70
    64
 62
     7
  6
CONTINUOUS
  0
LAYER
  2
122
 70
    64
 62
     7
  6
CONTINUOUS
  0
LAYER
  2
123
 70
    64
 62
     7
  6
CONTINUOUS
  0
LAYER
  2
124
 70
    64
 62
     7
  6
CONTINUOUS
  0
LAYER
  2
125
 70
    64
 62
     7
  6
CONTINUOUS
  0
LAYER
  2
126
 70
    64
 62
     7
  6
CONTINUOUS
  0
LAYER
  2
127
 70
    64
 62
     7
  6
CONTINUOUS
  0
LAYER
  2
128
 70
    64
 62
     7
  6
CONTINUOUS
  0
LAYER
  2
129
 70
    64
 62
     7
  6
CONTINUOUS
  0
LAYER
  2
130
 70
    64
 62
     7
  6
CONTINUOUS
  0
LAYER
  2
131
 70
    64
 62
     7
  6
CONTINUOUS
  0
LAYER
  2
132
 70
    64
 62
     7
  6
CONTINUOUS
  0
LAYER
  2
133
 70
    64
 62
     7
  6
CONTINUOUS
  0
LAYER
  2
134
 70
    64
 62
     7
  6
CONTINUOUS
  0
LAYER
  2
135
 70
    64
 62
     7
  6
CONTINUOUS
  0
LAYER
  2
136
 70
    64
 62
     7
  6
CONTINUOUS
  0
LAYER
  2
137
 70
    64
 62
     7
  6
CONTINUOUS
  0
LAYER
  2
138
 70
    64
 62
     7
  6
CONTINUOUS
  0
LAYER
  2
139
 70
    64
 62
     7
  6
CONTINUOUS
  0
LAYER
  2
140
 70
    64
 62
     7
  6
CONTINUOUS
  0
LAYER
  2
141
 70
    64
 62
     7
  6
CONTINUOUS
  0
LAYER
  2
142
 70
    64
 62
     7
  6
CONTINUOUS
  0
LAYER
  2
143
 70
    64
 62
     7
  6
CONTINUOUS
  0
LAYER
  2
144
 70
    64
 62
     7
  6
CONTINUOUS
  0
LAYER
  2
145
 70
    64
 62
     7
  6
CONTINUOUS
  0
LAYER
  2
146
 70
    64
 62
     7
  6
CONTINUOUS
  0
LAYER
  2
147
 70
    64
 62
     7
  6
CONTINUOUS
  0
LAYER
  2
148
 70
    64
 62
     7
  6
CONTINUOUS
  0
LAYER
  2
149
 70
    64
 62
     7
  6
CONTINUOUS
  0
LAYER
  2
150
 70
    64
 62
     7
  6
CONTINUOUS
  0
LAYER
  2
151
 70
    64
 62
     7
  6
CONTINUOUS
  0
LAYER
  2
152
 70
    64
 62
     7
  6
CONTINUOUS
  0
LAYER
  2
153
 70
    64
 62
     7
  6
CONTINUOUS
  0
LAYER
  2
154
 70
    64
 62
     7
  6
CONTINUOUS
  0
LAYER
  2
155
 70
    64
 62
     7
  6
CONTINUOUS
  0
LAYER
  2
156
 70
    64
 62
     7
  6
CONTINUOUS
  0
LAYER
  2
157
 70
    64
 62
     7
  6
CONTINUOUS
  0
LAYER
  2
158
 70
    64
 62
     7
  6
CONTINUOUS
  0
LAYER
  2
159
 70
    64
 62
     7
  6
CONTINUOUS
  0
LAYER
  2
160
 70
    64
 62
     7
  6
CONTINUOUS
  0
LAYER
  2
161
 70
    64
 62
     7
  6
CONTINUOUS
  0
LAYER
  2
162
 70
    64
 62
     7
  6
CONTINUOUS
  0
LAYER
  2
163
 70
    64
 62
     7
  6
CONTINUOUS
  0
LAYER
  2
164
 70
    64
 62
     7
  6
CONTINUOUS
  0
LAYER
  2
165
 70
    64
 62
     7
  6
CONTINUOUS
  0
LAYER
  2
166
 70
    64
 62
     7
  6
CONTINUOUS
  0
LAYER
  2
167
 70
    64
 62
     7
  6
CONTINUOUS
  0
LAYER
  2
168
 70
    64
 62
     7
  6
CONTINUOUS
  0
LAYER
  2
169
 70
    64
 62
     7
  6
CONTINUOUS
  0
LAYER
  2
170
 70
    64
 62
     7
  6
CONTINUOUS
  0
LAYER
  2
171
 70
    64
 62
     7
  6
CONTINUOUS
  0
LAYER
  2
172
 70
    64
 62
     7
  6
CONTINUOUS
  0
LAYER
  2
173
 70
    64
 62
     7
  6
CONTINUOUS
  0
LAYER
  2
174
 70
    64
 62
     7
  6
CONTINUOUS
  0
LAYER
  2
175
 70
    64
 62
     7
  6
CONTINUOUS
  0
LAYER
  2
176
 70
    64
 62
     7
  6
CONTINUOUS
  0
LAYER
  2
177
 70
    64
 62
     7
  6
CONTINUOUS
  0
LAYER
  2
178
 70
    64
 62
     7
  6
CONTINUOUS
  0
LAYER
  2
179
 70
    64
 62
     7
  6
CONTINUOUS
  0
LAYER
  2
180
 70
    64
 62
     7
  6
CONTINUOUS
  0
LAYER
  2
181
 70
    64
 62
     7
  6
CONTINUOUS
  0
LAYER
  2
182
 70
    64
 62
     7
  6
CONTINUOUS
  0
LAYER
  2
183
 70
    64
 62
     7
  6
CONTINUOUS
  0
LAYER
  2
184
 70
    64
 62
     7
  6
CONTINUOUS
  0
LAYER
  2
185
 70
    64
 62
     7
  6
CONTINUOUS
  0
LAYER
  2
186
 70
    64
 62
     7
  6
CONTINUOUS
  0
LAYER
  2
187
 70
    64
 62
     7
  6
CONTINUOUS
  0
LAYER
  2
188
 70
    64
 62
     7
  6
CONTINUOUS
  0
LAYER
  2
189
 70
    64
 62
     7
  6
CONTINUOUS
  0
LAYER
  2
190
 70
    64
 62
     7
  6
CONTINUOUS
  0
LAYER
  2
191
 70
    64
 62
     7
  6
CONTINUOUS
  0
LAYER
  2
192
 70
    64
 62
     7
  6
CONTINUOUS
  0
LAYER
  2
193
 70
    64
 62
     7
  6
CONTINUOUS
  0
LAYER
  2
194
 70
    64
 62
     7
  6
CONTINUOUS
  0
LAYER
  2
195
 70
    64
 62
     7
  6
CONTINUOUS
  0
LAYER
  2
196
 70
    64
 62
     7
  6
CONTINUOUS
  0
LAYER
  2
197
 70
    64
 62
     7
  6
CONTINUOUS
  0
LAYER
  2
198
 70
    64
 62
     7
  6
CONTINUOUS
  0
LAYER
  2
199
 70
    64
 62
     7
  6
CONTINUOUS
  0
LAYER
  2
200
 70
    64
 62
     7
  6
CONTINUOUS
  0
LAYER
  2
201
 70
    64
 62
     7
  6
CONTINUOUS
  0
LAYER
  2
202
 70
    64
 62
     7
  6
CONTINUOUS
  0
LAYER
  2
203
 70
    64
 62
     7
  6
CONTINUOUS
  0
LAYER
  2
204
 70
    64
 62
     7
  6
CONTINUOUS
  0
LAYER
  2
205
 70
    64
 62
     7
  6
CONTINUOUS
  0
LAYER
  2
206
 70
    64
 62
     7
  6
CONTINUOUS
  0
LAYER
  2
207
 70
    64
 62
     7
  6
CONTINUOUS
  0
LAYER
  2
208
 70
    64
 62
     7
  6
CONTINUOUS
  0
LAYER
  2
209
 70
    64
 62
     7
  6
CONTINUOUS
  0
LAYER
  2
210
 70
    64
 62
     7
  6
CONTINUOUS
  0
LAYER
  2
211
 70
    64
 62
     7
  6
CONTINUOUS
  0
LAYER
  2
212
 70
    64
 62
     7
  6
CONTINUOUS
  0
LAYER
  2
213
 70
    64
 62
     7
  6
CONTINUOUS
  0
LAYER
  2
214
 70
    64
 62
     7
  6
CONTINUOUS
  0
LAYER
  2
215
 70
    64
 62
     7
  6
CONTINUOUS
  0
LAYER
  2
216
 70
    64
 62
     7
  6
CONTINUOUS
  0
LAYER
  2
217
 70
    64
 62
     7
  6
CONTINUOUS
  0
LAYER
  2
218
 70
    64
 62
     7
  6
CONTINUOUS
  0
LAYER
  2
219
 70
    64
 62
     7
  6
CONTINUOUS
  0
LAYER
  2
220
 70
    64
 62
     7
  6
CONTINUOUS
  0
LAYER
  2
221
 70
    64
 62
     7
  6
CONTINUOUS
  0
LAYER
  2
222
 70
    64
 62
     7
  6
CONTINUOUS
  0
LAYER
  2
223
 70
    64
 62
     7
  6
CONTINUOUS
  0
LAYER
  2
224
 70
    64
 62
     7
  6
CONTINUOUS
  0
LAYER
  2
225
 70
    64
 62
     7
  6
CONTINUOUS
  0
LAYER
  2
226
 70
    64
 62
     7
  6
CONTINUOUS
  0
LAYER
  2
227
 70
    64
 62
     7
  6
CONTINUOUS
  0
LAYER
  2
228
 70
    64
 62
     7
  6
CONTINUOUS
  0
LAYER
  2
229
 70
    64
 62
     7
  6
CONTINUOUS
  0
LAYER
  2
230
 70
    64
 62
     7
  6
CONTINUOUS
  0
LAYER
  2
231
 70
    64
 62
     7
  6
CONTINUOUS
  0
LAYER
  2
232
 70
    64
 62
     7
  6
CONTINUOUS
  0
LAYER
  2
233
 70
    64
 62
     7
  6
CONTINUOUS
  0
LAYER
  2
234
 70
    64
 62
     7
  6
CONTINUOUS
  0
LAYER
  2
235
 70
    64
 62
     7
  6
CONTINUOUS
  0
LAYER
  2
236
 70
    64
 62
     7
  6
CONTINUOUS
  0
LAYER
  2
237
 70
    64
 62
     7
  6
CONTINUOUS
  0
LAYER
  2
238
 70
    64
 62
     7
  6
CONTINUOUS
  0
LAYER
  2
239
 70
    64
 62
     7
  6
CONTINUOUS
  0
LAYER
  2
240
 70
    64
 62
     7
  6
CONTINUOUS
  0
LAYER
  2
241
 70
    64
 62
     7
  6
CONTINUOUS
  0
LAYER
  2
242
 70
    64
 62
     7
  6
CONTINUOUS
  0
LAYER
  2
243
 70
    64
 62
     7
  6
CONTINUOUS
  0
LAYER
  2
244
 70
    64
 62
     7
  6
CONTINUOUS
  0
LAYER
  2
245
 70
    64
 62
     7
  6
CONTINUOUS
  0
LAYER
  2
246
 70
    64
 62
     7
  6
CONTINUOUS
  0
LAYER
  2
247
 70
    64
 62
     7
  6
CONTINUOUS
  0
LAYER
  2
248
 70
    64
 62
     7
  6
CONTINUOUS
  0
LAYER
  2
249
 70
    64
 62
     7
  6
CONTINUOUS
  0
LAYER
  2
250
 70
    64
 62
     7
  6
CONTINUOUS
  0
LAYER
  2
251
 70
    64
 62
     7
  6
CONTINUOUS
  0
LAYER
  2
252
 70
    64
 62
     7
  6
CONTINUOUS
  0
LAYER
  2
253
 70
    64
 62
     7
  6
CONTINUOUS
  0
LAYER
  2
254
 70
    64
 62
     7
  6
CONTINUOUS
  0
LAYER
  2
255
 70
    64
 62
     7
  6
CONTINUOUS
  0
ENDTAB
  0
TABLE
  2
STYLE
 70
     2
  0
STYLE
  2
STANDARD
 70
    64
 40
0.0
 41
1.0
 50
0.0
 71
     0
 42
3.000000
  3
TXT
  4
BIGFONT
  0
ENDTAB
  0
ENDSEC
  0
SECTION
  2
ENTITIES
  0
LINE
  8
0
  6
CONTINUOUS
 62
     2
 10
 73.512832641601563
 20
 76.712844848632812
 11
 73.512832641601563
 21
 52.912845611572266
  0
LINE
  8
0
  6
CONTINUOUS
 62
     2
 10
 76.612831115722656
 20
 49.812847137451172
 11
 93.712806701660156
 21
 49.812850952148438
  0
ARC
  8
0
  6
CONTINUOUS
 62
     2
 10
 76.612831115722656
 20
 52.912845611572266
 40
 3.0999999046325684
 50
-179.9999980615126
 51
-90.000000851989171
  0
LINE
  8
0
  6
CONTINUOUS
 62
     2
 10
 93.712806701660156
 20
 49.812850952148438
 11
 96.012825012207031
 21
 49.812850952148438
  0
LINE
  8
0
  6
CONTINUOUS
 62
     2
 10
 96.012825012207031
 20
 49.812850952148438
 11
 96.012825012207031
 21
 52.112850189208984
  0
LINE
  8
0
  6
CONTINUOUS
 62
     2
 10
 96.012825012207031
 20
 52.112850189208984
 11
 76.612831115722656
 21
 52.112850189208984
  0
ARC
  8
0
  6
CONTINUOUS
 62
     2
 10
 76.612831115722656
 20
 52.912849426269531
 40
 0.800000011920929
 50
-179.9999980615126
 51
-90.000000851989171
  0
LINE
  8
0
  6
CONTINUOUS
 62
     2
 10
 75.812828063964844
 20
 52.912849426269531
 11
 75.812828063964844
 21
 76.712852478027344
  0
ARC
  8
0
  6
CONTINUOUS
 62
     2
 10
 76.612831115722656
 20
 76.712852478027344
 40
 0.800000011920929
 50
 90.000004039712721
 51
-179.9999980615126
  0
LINE
  8
0
  6
CONTINUOUS
 62
     2
 10
 76.612831115722656
 20
 77.512855529785156
 11
 96.012825012207031
 21
 77.512855529785156
  0
LINE
  8
0
  6
CONTINUOUS
 62
     2
 10
 96.012825012207031
 20
 77.512855529785156
 11
 96.012825012207031
 21
 79.812843322753906
  0
LINE
  8
0
  6
CONTINUOUS
 62
     2
 10
 96.012825012207031
 20
 79.812843322753906
 11
 76.612831115722656
 21
 79.812843322753906
  0
ARC
  8
0
  6
CONTINUOUS
 62
     2
 10
 76.612831115722656
 20
 76.712844848632812
 40
 3.0999999046325684
 50
 90.000004039712721
 51
-179.9999980615126
  0
LINE
  8
0
  6
DASHDOT
 62
     7
 10
-90.033470153808594
 20
 54.812843322753906
 11
-38.543052673339844
 21
 54.812843322753906
  0
LINE
  8
0
  6
DASHDOT
 62
     7
 10
 59.705123901367188
 20
 64.812847137451172
 11
 133.47019195556641
 21
 64.812847137451172
  0
LINE
  8
0
  6
DASHDOT
 62
     7
 10
-66.583457946777344
 20
 71.034927368164062
 11
-66.583457946777344
 21
 39.288116455078125
  0
LINE
  8
0
  6
DASHDOT
 62
     7
 10
-46.583454132080078
 20
 71.034927368164062
 11
-46.583454132080078
 21
 37.493240356445313
  0
LINE
  8
0
  6
DASHDOT
 62
     7
 10
-46.583454132080078
 20
-2.1721429824829102
 11
-46.583454132080078
 21
-17.78434944152832
  0
LINE
  8
0
  6
DOT
 62
     2
 10
 88.512840270996094
 20
 79.812843322753906
 11
 88.512840270996094
 21
 77.512840270996094
  0
LINE
  8
0
  6
DOT
 62
     2
 10
 93.512832641601562
 20
 77.512840270996094
 11
 93.512832641601562
 21
 79.812843322753906
  0
LINE
  8
0
  6
DOT
 62
     2
 10
 88.512840270996094
 20
 52.112850189208984
 11
 88.512840270996094
 21
 49.812847137451172
  0
LINE
  8
0
  6
DOT
 62
     2
 10
 93.512832641601562
 20
 49.812847137451172
 11
 93.512832641601562
 21
 52.112850189208984
  0
LINE
  8
0
  6
DOT
 62
     2
 10
 86.012840270996094
 20
 52.112850189208984
 11
 86.012840270996094
 21
 49.812847137451172
  0
LINE
  8
0
  6
DOT
 62
     2
 10
 86.012840270996094
 20
 79.812843322753906
 11
 86.012840270996094
 21
 77.512840270996094
  0
LINE
  8
0
  6
DASHDOT
 62
     7
 10
 55.330211639404297
 20
 87.919921875
 11
 55.330211639404297
 21
-83.518470764160156
  0
LINE
  8
0
  6
DASHDOT
 62
     7
 10
 11.589705944061279
 20
-0.5323641300201416
 11
 11.589705944061279
 21
-46.759601593017578
  0
LINE
  8
0
  6
DASHDOT
 62
     7
 10
-73.339752197265625
 20
-10.18714714050293
 11
-40.054595947265625
 21
-10.18714714050293
  0
LINE
  8
4
  6
CONTINUOUS
 62
     7
 10
 57.798053741455078
 20
-0.0871586799621582
 11
 122.81285858154297
 21
-0.0871586799621582
  0
ARC
  8
4
  6
CONTINUOUS
 62
     7
 10
 122.81285858154297
 20
-3.2871527671813965
 40
 3.2000000476837158
 50
 0
 51
 90.000004039712721
  0
LINE
  8
4
  6
CONTINUOUS
 62
     7
 10
 126.01284790039062
 20
-3.2871527671813965
 11
 126.01284790039062
 21
-10.087152481079102
  0
LINE
  8
4
  6
CONTINUOUS
 62
     7
 10
 126.01284790039062
 20
-10.087152481079102
 11
 124.412841796875
 21
-10.087152481079102
  0
LINE
  8
4
  6
CONTINUOUS
 62
     7
 10
 124.412841796875
 20
-10.087152481079102
 11
 124.412841796875
 21
-3.2871594429016113
  0
ARC
  8
4
  6
CONTINUOUS
 62
     7
 10
 122.81285858154297
 20
-3.2871594429016113
 40
 1.6000000238418579
 50
 0
 51
 90.000004039712721
  0
LINE
  8
4
  6
CONTINUOUS
 62
     7
 10
 122.81285858154297
 20
-1.6871590614318848
 11
 57.798053741455078
 21
-1.6871590614318848
  0
ARC
  8
0
  6
CONTINUOUS
 62
     6
 10
 111.01284790039062
 20
-10.187153816223145
 40
 16.793741226196289
 50
-94.467545702032581
 51
 47.420754291691274
  0
LINE
  8
0
  6
CONTINUOUS
 62
     7
 10
-59.850189208984375
 20
-42.187149047851563
 11
-20.623456954956055
 21
-42.187149047851563
  0
LINE
  8
0
  6
DASHDOT
 62
     7
 10
 161.01283264160156
 20
-0.7444276809692383
 11
 161.01283264160156
 21
-75.878181457519531
  0
LINE
  8
0
  6
DASHDOT
 62
     7
 10
 143.08653259277344
 20
-10.187153816223145
 11
 178.98402404785156
 21
-10.187153816223145
  0
ARC
  8
0
  6
CONTINUOUS
 62
     7
 10
 111.01284027099609
 20
-10.187153816223145
 40
 2.5
 50
-179.9999980615126
 51
 120.7627189635311
  0
ARC
  8
0
  6
CONTINUOUS
 62
     7
 10
 111.01284027099609
 20
-10.187153816223145
 40
 4.8000001907348633
 50
-179.9999980615126
 51
 120.76273262390967
  0
LINE
  8
0
  6
CONTINUOUS
 62
     7
 10
 109.01285552978516
 20
-1.6871590614318848
 11
 118.51285552978516
 21
-1.6871590614318848
  0
LINE
  8
0
  6
CONTINUOUS
 62
     7
 10
 109.01285552978516
 20
-3.9871549606323242
 11
 118.51285552978516
 21
-3.9871549606323242
  0
LINE
  8
0
  6
CONTINUOUS
 62
     7
 10
 106.21284484863281
 20
-10.187153816223145
 11
 106.21284484863281
 21
-5.9871406555175781
  0
ARC
  8
0
  6
CONTINUOUS
 62
     7
 10
 110.51284790039062
 20
-5.9871406555175781
 40
 4.3000001907348633
 50
 90.000004039712721
 51
-179.9999980615126
  0
LINE
  8
0
  6
CONTINUOUS
 62
     7
 10
 108.51284790039062
 20
-10.187153816223145
 11
 108.51284790039062
 21
-5.9871406555175781
  0
ARC
  8
0
  6
CONTINUOUS
 62
     7
 10
 110.51284790039062
 20
-5.9871406555175781
 40
 2
 50
 90.000004039712721
 51
-179.9999980615126
  0
LINE
  8
0
  6
CONTINUOUS
 62
     7
 10
 118.51285552978516
 20
-1.6871590614318848
 11
 118.51285552978516
 21
-3.9871549606323242
  0
LINE
  8
0
  6
CONTINUOUS
 62
     7
 10
 109.73413848876953
 20
-8.0389223098754883
 11
 108.51284790039062
 21
-5.9871406555175781
  0
LINE
  8
0
  6
CONTINUOUS
 62
     7
 10
 113.01283264160156
 20
-1.6871590614318848
 11
 113.01283264160156
 21
-1.8871612548828125
  0
LINE
  8
0
  6
CONTINUOUS
 62
     7
 10
 113.01283264160156
 20
-1.8871612548828125
 11
 115.01283264160156
 21
-1.8871612548828125
  0
LINE
  8
0
  6
CONTINUOUS
 62
     7
 10
 115.01283264160156
 20
-1.8871612548828125
 11
 115.01283264160156
 21
-1.6871590614318848
  0
LINE
  8
0
  6
CONTINUOUS
 62
     7
 10
 109.01285552978516
 20
-1.6871590614318848
 11
 109.01285552978516
 21
-3.9871549606323242
  0
TEXT
  8
0
  6
CONTINUOUS
 62
     7
 10
 147.28829040527344
 20
 20.294853210449219
 11
 165.28829040527344
 21
 20.294853210449219
 40
 4
 41
 0.8
  1
（組付図）
 50
 0
 72
  5
  0
LINE
  8
0
  6
DASHDOT
 62
     7
 10
 111.01284790039062
 20
 1.7164266109466553
 11
 111.01284790039062
 21
-19.092870712280273
  0
LINE
  8
0
  6
DASHDOT
 62
     7
 10
-66.583465576171875
 20
-4.2240972518920898
 11
-66.583465576171875
 21
-84.387954711914063
  0
LINE
  8
0
  6
DASHDOT
 62
     7
 10
 91.012825012207031
 20
 86.461570739746094
 11
 91.012825012207031
 21
 43.384639739990234
  0
LINE
  8
0
  6
DASHDOT
 62
     7
 10
 91.0128173828125
 20
 1.5417768955230713
 11
 91.0128173828125
 21
-75.749961853027344
  0
LINE
  8
0
  6
DASHDOT
 62
     7
 10
-154.75663757324219
 20
-0.5323641300201416
 11
-154.75663757324219
 21
-46.759601593017578
  0
LINE
  8
0
  6
CONTINUOUS
 62
     3
 10
-147.75666809082031
 20
-2.6871457099914551
 11
-161.75663757324219
 21
-2.6871457099914551
  0
ARC
  8
0
  6
CONTINUOUS
 62
     3
 10
-161.75663757324219
 20
-3.1871452331542969
 40
 0.5
 50
 90.000004039712721
 51
-179.9999980615126
  0
LINE
  8
0
  6
CONTINUOUS
 62
     3
 10
-147.25666809082031
 20
-3.1871452331542969
 11
-147.25666809082031
 21
-8.6871480941772461
  0
ARC
  8
0
  6
CONTINUOUS
 62
     3
 10
-147.75666809082031
 20
-3.1871452331542969
 40
 0.5
 50
 0
 51
 90.000004039712721
  0
LINE
  8
0
  6
CONTINUOUS
 62
     3
 10
-162.25663757324219
 20
-3.1871452331542969
 11
-162.25663757324219
 21
-8.6871480941772461
  0
LINE
  8
0
  6
DOT
 62
     3
 10
-167.25663757324219
 20
-5.1871500015258789
 11
-142.25663757324219
 21
-5.1871500015258789
  0
LINE
  8
0
  6
DASHDOT
 62
     7
 10
 78.158683776855469
 20
-10.187166213989258
 11
 120.85100555419922
 21
-10.187166213989258
  0
LINE
  8
0
  6
CONTINUOUS
 62
     7
 10
-84.105323791503906
 20
-42.187152862548828
 11
-100.04344940185547
 21
-42.187152862548828
  0
LINE
  8
0
  6
CONTINUOUS
 62
     3
 10
-161.75663757324219
 20
-9.1871480941772461
 11
-147.75666809082031
 21
-9.1871480941772461
  0
ARC
  8
0
  6
CONTINUOUS
 62
     3
 10
-147.75666809082031
 20
-8.6871480941772461
 40
 0.5
 50
-90.000000851989171
 51
 0
  0
ARC
  8
0
  6
CONTINUOUS
 62
     3
 10
-161.75663757324219
 20
-8.6871480941772461
 40
 0.5
 50
-179.9999980615126
 51
-90.000000851989171
  0
LINE
  8
0
  6
CONTINUOUS
 62
     7
 10
-88.323814392089844
 20
-2.6871457099914551
 11
-100.04344940185547
 21
-2.6871457099914551
  0
LINE
  8
0
  6
CONTINUOUS
 62
     7
 10
-99.083457946777344
 20
-5.1871500015258789
 11
-99.083457946777344
 21
-2.6871457099914551
  0
TEXT
  8
0
  6
CONTINUOUS
 62
     7
 10
-100.04344936688635
 20
-1.087148193517
 11
-100.04344962041242
 21
 4.7128518064829912
 40
 2
 41
 0.8
  1
２．５
 50
 90.000004039712721
 72
  5
  0
LINE
  8
0
  6
CONTINUOUS
 62
     7
 10
-99.083457946777344
 20
 2.1128554344177246
 11
-99.083457946777344
 21
-2.6871457099914551
  0
LINE
  8
0
  6
CONTINUOUS
 62
     7
 10
-99.083457946777344
 20
-2.6871457099914551
 11
-98.307000811469777
 21
 0.21063176887575
  0
LINE
  8
0
  6
CONTINUOUS
 62
     7
 10
-99.083457946777344
 20
-2.6871457099914551
 11
-99.85991508208491
 21
 0.21063176887575
  0
LINE
  8
0
  6
DASHDOT
 62
     7
 10
 111.01280975341797
 20
 100.73899078369141
 11
 111.01280975341797
 21
 30.056291580200195
  0
ARC
  8
0
  6
CONTINUOUS
 62
     6
 10
 111.01284790039062
 20
-10.187166213989258
 40
 15.027806282043457
 50
-116.62082752075629
 51
-2.3335651329635509
  0
LINE
  8
0
  6
CONTINUOUS
 62
     3
 10
 112.01284790039062
 20
-5.1871700286865234
 11
 75.912841796875
 21
-5.1871700286865234
  0
ARC
  8
0
  6
CONTINUOUS
 62
     3
 10
 83.912841796875
 20
-4.6871700286865234
 40
 0.5
 50
-179.9999980615126
 51
-90.000000851989171
  0
LINE
  8
0
  6
CONTINUOUS
 62
     3
 10
 116.01284790039062
 20
-9.1871671676635742
 11
 116.01284790039062
 21
-11.187172889709473
  0
ARC
  8
0
  6
CONTINUOUS
 62
     3
 10
 112.01284790039062
 20
-9.1871671676635742
 40
 4
 50
 0
 51
 90.000004039712721
  0
ARC
  8
0
  6
CONTINUOUS
 62
     3
 10
 112.01284790039062
 20
-11.187172889709473
 40
 4
 50
-90.000000851989171
 51
 0
  0
LINE
  8
0
  6
CONTINUOUS
 62
     3
 10
 112.01284790039062
 20
-15.187164306640625
 11
 111.01283264160156
 21
-15.187164306640625
  0
ARC
  8
0
  6
CONTINUOUS
 62
     3
 10
 111.01283264160156
 20
-20.187166213989258
 40
 5
 50
 90.000004039712721
 51
-179.9999980615126
  0
LINE
  8
0
  6
CONTINUOUS
 62
     3
 10
 106.01283264160156
 20
-20.187166213989258
 11
 106.01283264160156
 21
-30.187141418457031
  0
ARC
  8
0
  6
CONTINUOUS
 62
     3
 10
 104.01283264160156
 20
-30.187141418457031
 40
 2
 50
-50.722587548480213
 51
 0
  0
CIRCLE
  8
0
  6
CONTINUOUS
 62
     3
 10
 111.01284790039062
 20
-10.187166213989258
 40
 2.5
  0
CIRCLE
  8
0
  6
CONTINUOUS
 62
     3
 10
 91.012825012207031
 20
-10.187186241149902
 40
 2.5000002384185791
  0
LINE
  8
0
  6
CONTINUOUS
 62
     3
 10
 75.912796020507813
 20
-40.187149047851563
 11
 75.912796020507813
 21
-3.687164306640625
  0
LINE
  8
0
  6
CONTINUOUS
 62
     3
 10
 96.11279296875
 20
-40.187149047851563
 11
 96.11279296875
 21
-37.187145233154297
  0
LINE
  8
0
  6
CONTINUOUS
 62
     3
 10
 94.11279296875
 20
-42.187141418457031
 11
 77.912796020507813
 21
-42.187141418457031
  0
ARC
  8
0
  6
CONTINUOUS
 62
     3
 10
 94.11279296875
 20
-40.187149047851563
 40
 2
 50
-90.000000851989171
 51
 0
  0
ARC
  8
0
  6
CONTINUOUS
 62
     3
 10
 77.912796020507813
 20
-40.187149047851563
 40
 2
 50
-179.9999980615126
 51
-90.000000851989171
  0
LINE
  8
0
  6
CONTINUOUS
 62
     3
 10
 96.11279296875
 20
-37.187145233154297
 11
 98.61279296875
 21
-37.187145233154297
  0
LINE
  8
0
  6
CONTINUOUS
 62
     3
 10
 96.712806701660156
 20
 79.812858581542969
 11
 115.51280212402344
 21
 79.812858581542969
  0
ARC
  8
0
  6
CONTINUOUS
 62
     3
 10
 96.712806701660156
 20
 79.312858581542969
 40
 0.5
 50
 90.000004039712721
 51
-179.9999980615126
  0
ARC
  8
0
  6
CONTINUOUS
 62
     3
 10
 115.51280212402344
 20
 79.312858581542969
 40
 0.5
 50
 0
 51
 90.000004039712721
  0
LINE
  8
0
  6
CONTINUOUS
 62
     3
 10
 96.712806701660156
 20
 49.812850952148438
 11
 115.51280212402344
 21
 49.812850952148438
  0
ARC
  8
0
  6
CONTINUOUS
 62
     3
 10
 96.712806701660156
 20
 50.312850952148438
 40
 0.5
 50
-179.9999980615126
 51
-90.000000851989171
  0
ARC
  8
0
  6
CONTINUOUS
 62
     3
 10
 115.51280212402344
 20
 50.312850952148438
 40
 0.5
 50
-90.000000851989171
 51
 0
  0
LINE
  8
0
  6
CONTINUOUS
 62
     3
 10
 116.01280212402344
 20
 79.312858581542969
 11
 116.01280212402344
 21
 50.312850952148438
  0
LINE
  8
0
  6
DOT
 62
     3
 10
 113.51280212402344
 20
 79.812858581542969
 11
 113.51280212402344
 21
 49.812850952148438
  0
LINE
  8
0
  6
DOT
 62
     3
 10
 108.51280212402344
 20
 79.812858581542969
 11
 108.51280212402344
 21
 49.812850952148438
  0
LINE
  8
0
  6
CONTINUOUS
 62
     3
 10
 96.212806701660156
 20
 77.312858581542969
 11
 76.912834167480469
 21
 77.312858581542969
  0
LINE
  8
0
  6
CONTINUOUS
 62
     3
 10
 96.212806701660156
 20
 79.312858581542969
 11
 96.212806701660156
 21
 77.312858581542969
  0
LINE
  8
0
  6
CONTINUOUS
 62
     3
 10
 96.212806701660156
 20
 52.267848968505859
 11
 76.812850952148437
 21
 52.267848968505859
  0
ARC
  8
0
  6
CONTINUOUS
 62
     3
 10
 76.812850952148437
 20
 53.267848968505859
 40
 1
 50
-179.9999980615126
 51
-90.000000851989171
  0
LINE
  8
0
  6
CONTINUOUS
 62
     3
 10
 96.212806701660156
 20
 52.267848968505859
 11
 96.212806701660156
 21
 50.312850952148438
  0
LINE
  8
0
  6
CONTINUOUS
 62
     3
 10
 75.912834167480469
 20
 72.312850952148438
 11
 75.912834167480469
 21
 76.312858581542969
  0
ARC
  8
0
  6
CONTINUOUS
 62
     3
 10
 76.912834167480469
 20
 76.312858581542969
 40
 1
 50
 90.000004039712721
 51
-179.9999980615126
  0
LINE
  8
0
  6
CONTINUOUS
 62
     3
 10
 75.812850952148438
 20
 72.312850952148438
 11
 75.812850952148438
 21
 53.267848968505859
  0
LINE
  8
0
  6
DOT
 62
     3
 10
 88.512809753417969
 20
 77.312858581542969
 11
 88.512809753417969
 21
 52.267848968505859
  0
LINE
  8
0
  6
DOT
 62
     3
 10
 93.512794494628906
 20
 77.312858581542969
 11
 93.512794494628906
 21
 52.267848968505859
  0
LINE
  8
0
  6
CONTINUOUS
 62
     6
 10
 108.51280975341797
 20
 94.812843322753906
 11
 108.51280975341797
 21
 32.812845230102539
  0
LINE
  8
0
  6
CONTINUOUS
 62
     6
 10
 113.5128173828125
 20
 94.812843322753906
 11
 113.5128173828125
 21
 32.812845230102539
  0
ARC
  8
0
  6
CONTINUOUS
 62
     6
 10
 108.5128173828125
 20
 94.812843322753906
 40
 5
 50
 0
 51
 90.000004039712721
  0
LINE
  8
0
  6
CONTINUOUS
 62
     7
 10
 109.01280975341797
 20
 107.31284332275391
 11
 118.51280975341797
 21
 107.31284332275391
  0
LINE
  8
0
  6
CONTINUOUS
 62
     7
 10
 118.51280975341797
 20
 107.31284332275391
 11
 118.51280975341797
 21
 22.31285285949707
  0
LINE
  8
0
  6
CONTINUOUS
 62
     7
 10
 118.51280975341797
 20
 22.31285285949707
 11
 109.01280975341797
 21
 22.31285285949707
  0
LINE
  8
0
  6
CONTINUOUS
 62
     7
 10
 109.01280975341797
 20
 22.31285285949707
 11
 109.01280975341797
 21
 32.812839508056641
  0
ARC
  8
0
  6
CONTINUOUS
 62
     7
 10
 107.01280975341797
 20
 32.812839508056641
 40
 2
 50
 0
 51
 90.000004039712721
  0
LINE
  8
0
  6
CONTINUOUS
 62
     7
 10
 109.01280975341797
 20
 51.812843322753906
 11
 109.01280975341797
 21
 77.812843322753906
  0
ARC
  8
0
  6
CONTINUOUS
 62
     7
 10
 107.01280975341797
 20
 77.812843322753906
 40
 2
 50
 0
 51
 90.000004039712721
  0
LINE
  8
0
  6
CONTINUOUS
 62
     7
 10
 109.01280975341797
 20
 96.812843322753906
 11
 109.01280975341797
 21
 107.31284332275391
  0
POINT
  8
0
  6
CONTINUOUS
 62
     6
 10
 111.01280975341797
 20
 64.812847137451172
  0
LINE
  8
0
  6
CONTINUOUS
 62
     7
 10
 106.21280670166016
 20
 94.812843322753906
 11
 107.01280975341797
 21
 94.812843322753906
  0
LINE
  8
0
  6
DOT
 62
     7
 10
 107.01280975341797
 20
 94.812843322753906
 11
 115.81281280517578
 21
 94.812843322753906
  0
ARC
  8
0
  6
CONTINUOUS
 62
     7
 10
 107.01280975341797
 20
 96.812843322753906
 40
 2
 50
-90.000000851989171
 51
 0
  0
LINE
  8
0
  6
DOT
 62
     7
 10
 115.81281280517578
 20
 94.812843322753906
 11
 115.81281280517578
 21
 79.812843322753906
  0
LINE
  8
0
  6
CONTINUOUS
 62
     7
 10
 107.01280975341797
 20
 79.812843322753906
 11
 106.21280670166016
 21
 79.812843322753906
  0
LINE
  8
0
  6
DOT
 62
     7
 10
 115.81281280517578
 20
 79.812843322753906
 11
 107.01280975341797
 21
 79.812843322753906
  0
LINE
  8
0
  6
CONTINUOUS
 62
     7
 10
 106.21280670166016
 20
 79.812843322753906
 11
 106.21280670166016
 21
 94.812843322753906
  0
LINE
  8
0
  6
CONTINUOUS
 62
     7
 10
 106.21280670166016
 20
 49.812843322753906
 11
 107.01280975341797
 21
 49.812843322753906
  0
LINE
  8
0
  6
DOT
 62
     7
 10
 107.01280975341797
 20
 49.812843322753906
 11
 115.81281280517578
 21
 49.812843322753906
  0
ARC
  8
0
  6
CONTINUOUS
 62
     7
 10
 107.01280975341797
 20
 51.812843322753906
 40
 2
 50
-90.000000851989171
 51
 0
  0
LINE
  8
0
  6
DOT
 62
     7
 10
 115.81281280517578
 20
 49.812843322753906
 11
 115.81281280517578
 21
 34.812847137451172
  0
LINE
  8
0
  6
CONTINUOUS
 62
     7
 10
 107.01280975341797
 20
 34.812847137451172
 11
 106.21280670166016
 21
 34.812847137451172
  0
LINE
  8
0
  6
DOT
 62
     7
 10
 115.81281280517578
 20
 34.812847137451172
 11
 107.01280975341797
 21
 34.812847137451172
  0
LINE
  8
0
  6
CONTINUOUS
 62
     7
 10
 106.21280670166016
 20
 34.812847137451172
 11
 106.21280670166016
 21
 49.812843322753906
  0
LINE
  8
0
  6
DOT
 62
     7
 10
 113.51280975341797
 20
 94.812843322753906
 11
 113.51280975341797
 21
 79.812843322753906
  0
LINE
  8
0
  6
DOT
 62
     7
 10
 108.51280975341797
 20
 79.812843322753906
 11
 108.51280975341797
 21
 94.812843322753906
  0
LINE
  8
0
  6
DOT
 62
     7
 10
 108.51280975341797
 20
 34.812847137451172
 11
 108.51280975341797
 21
 49.812843322753906
  0
LINE
  8
0
  6
DOT
 62
     7
 10
 113.51280975341797
 20
 34.812847137451172
 11
 113.51280975341797
 21
 49.812843322753906
  0
CIRCLE
  8
0
  6
CONTINUOUS
 62
     7
 10
 114.01280975341797
 20
 64.812847137451172
 40
 1
  0
CIRCLE
  8
0
  6
CONTINUOUS
 62
     7
 10
 114.01280975341797
 20
 102.31284332275391
 40
 1
  0
CIRCLE
  8
0
  6
CONTINUOUS
 62
     7
 10
 114.01280975341797
 20
 27.312845230102539
 40
 1
  0
LINE
  8
0
  6
CONTINUOUS
 62
     6
 10
 108.51280975341797
 20
 94.812843322753906
 11
 93.512825012207031
 21
 94.812843322753906
  0
LINE
  8
0
  6
CONTINUOUS
 62
     6
 10
 108.5128173828125
 20
 99.812843322753906
 11
 93.512825012207031
 21
 99.812843322753906
  0
LINE
  8
0
  6
CONTINUOUS
 62
     6
 10
 88.512825012207031
 20
 94.812843322753906
 11
 88.512825012207031
 21
 47.812847137451172
  0
ARC
  8
0
  6
CONTINUOUS
 62
     6
 10
 93.512825012207031
 20
 94.812843322753906
 40
 5
 50
 90.000004039712721
 51
-179.9999980615126
  0
LINE
  8
0
  6
CONTINUOUS
 62
     6
 10
 93.512825012207031
 20
 94.812843322753906
 11
 93.512825012207031
 21
 47.812847137451172
  0
LINE
  8
0
  6
CONTINUOUS
 62
     6
 10
 112.5128173828125
 20
 31.812847137451172
 11
 109.51280975341797
 21
 31.812847137451172
  0
LINE
  8
0
  6
CONTINUOUS
 62
     6
 10
 113.5128173828125
 20
 32.812845230102539
 11
 108.51280975341797
 21
 32.812845230102539
  0
LINE
  8
0
  6
CONTINUOUS
 62
     6
 10
 108.51280975341797
 20
 32.812845230102539
 11
 109.51280975341797
 21
 31.812847137451172
  0
LINE
  8
0
  6
CONTINUOUS
 62
     6
 10
 113.5128173828125
 20
 32.812845230102539
 11
 112.5128173828125
 21
 31.812847137451172
  0
LINE
  8
0
  6
CONTINUOUS
 62
     6
 10
 89.512825012207031
 20
 46.812850952148438
 11
 92.512825012207031
 21
 46.812850952148438
  0
LINE
  8
0
  6
CONTINUOUS
 62
     6
 10
 88.512825012207031
 20
 47.812847137451172
 11
 93.512825012207031
 21
 47.812847137451172
  0
LINE
  8
0
  6
CONTINUOUS
 62
     6
 10
 88.512825012207031
 20
 47.812847137451172
 11
 89.512825012207031
 21
 46.812850952148438
  0
LINE
  8
0
  6
CONTINUOUS
 62
     6
 10
 93.512825012207031
 20
 47.812847137451172
 11
 92.512825012207031
 21
 46.812850952148438
  0
LINE
  8
0
  6
DIVIDE
 62
     6
 10
 108.51280975341797
 20
 127.81283569335938
 11
 108.51280975341797
 21
 65.812835693359375
  0
LINE
  8
0
  6
DIVIDE
 62
     6
 10
 113.5128173828125
 20
 127.81283569335938
 11
 113.5128173828125
 21
 65.812835693359375
  0
POINT
  8
0
  6
CONTINUOUS
 62
     6
 10
 111.01280975341797
 20
 97.812843322753906
  0
LINE
  8
0
  6
DIVIDE
 62
     6
 10
 108.51280975341797
 20
 127.81283569335938
 11
 93.512825012207031
 21
 127.81283569335938
  0
LINE
  8
0
  6
DIVIDE
 62
     6
 10
 88.512825012207031
 20
 127.81283569335938
 11
 88.512825012207031
 21
 80.812843322753906
  0
LINE
  8
0
  6
DIVIDE
 62
     6
 10
 93.512825012207031
 20
 127.81283569335938
 11
 93.512825012207031
 21
 80.812843322753906
  0
LINE
  8
0
  6
DIVIDE
 62
     6
 10
 112.5128173828125
 20
 64.812839508056641
 11
 109.51280975341797
 21
 64.812839508056641
  0
LINE
  8
0
  6
DIVIDE
 62
     6
 10
 113.5128173828125
 20
 65.812835693359375
 11
 108.51280975341797
 21
 65.812835693359375
  0
LINE
  8
0
  6
DIVIDE
 62
     6
 10
 108.51280975341797
 20
 65.812835693359375
 11
 109.51280975341797
 21
 64.812839508056641
  0
LINE
  8
0
  6
DIVIDE
 62
     6
 10
 113.5128173828125
 20
 65.812835693359375
 11
 112.5128173828125
 21
 64.812839508056641
  0
LINE
  8
0
  6
DIVIDE
 62
     6
 10
 89.512825012207031
 20
 79.812843322753906
 11
 92.512825012207031
 21
 79.812843322753906
  0
LINE
  8
0
  6
DIVIDE
 62
     6
 10
 88.512825012207031
 20
 80.812843322753906
 11
 93.512825012207031
 21
 80.812843322753906
  0
LINE
  8
0
  6
DIVIDE
 62
     6
 10
 88.512825012207031
 20
 80.812843322753906
 11
 89.512825012207031
 21
 79.812843322753906
  0
LINE
  8
0
  6
DIVIDE
 62
     6
 10
 93.512825012207031
 20
 80.812843322753906
 11
 92.512825012207031
 21
 79.812843322753906
  0
LINE
  8
0
  6
CONTINUOUS
 62
     3
 10
 96.212821960449219
 20
-15.687183380126953
 11
 96.212821960449219
 21
-5.687169075012207
  0
ARC
  8
0
  6
CONTINUOUS
 62
     3
 10
 96.712821960449219
 20
-5.687169075012207
 40
 0.5
 50
 90.000004039712721
 51
-179.9999980615126
  0
LINE
  8
0
  6
CONTINUOUS
 62
     3
 10
 75.912841796875
 20
-5.1871700286865234
 11
 73.512832641601563
 21
-5.1871700286865234
  0
ARC
  8
0
  6
CONTINUOUS
 62
     3
 10
 76.912841796875
 20
-3.687164306640625
 40
 1
 50
 90.000004039712721
 51
-179.9999980615126
  0
LINE
  8
0
  6
CONTINUOUS
 62
     3
 10
 81.912826538085938
 20
-2.6871647834777832
 11
 72.512832641601562
 21
-2.6871647834777832
  0
ARC
  8
0
  6
CONTINUOUS
 62
     3
 10
 81.912826538085938
 20
-4.1871638298034668
 40
 1.5
 50
 0
 51
 90.000004039712721
  0
ARC
  8
0
  6
CONTINUOUS
 62
     3
 10
 72.512832641601562
 20
-4.1871638298034668
 40
 1.5
 50
 90.000004039712721
 51
-179.9999980615126
  0
LINE
  8
0
  6
CONTINUOUS
 62
     3
 10
 71.012840270996094
 20
-4.1871638298034668
 11
 71.012840270996094
 21
-8.1871681213378906
  0
ARC
  8
0
  6
CONTINUOUS
 62
     3
 10
 72.012840270996094
 20
-8.1871681213378906
 40
 1
 50
-179.9999980615126
 51
-90.000000851989171
  0
LINE
  8
0
  6
CONTINUOUS
 62
     3
 10
 72.512832641601562
 20
-9.1871671676635742
 11
 72.012840270996094
 21
-9.1871671676635742
  0
ARC
  8
0
  6
CONTINUOUS
 62
     3
 10
 72.512832641601562
 20
-8.1871681213378906
 40
 1
 50
-90.000000851989171
 51
 0
  0
LINE
  8
0
  6
CONTINUOUS
 62
     3
 10
 83.412841796875
 20
-4.6871700286865234
 11
 83.412841796875
 21
-4.1618752479553223
  0
LINE
  8
0
  6
CONTINUOUS
 62
     3
 10
 73.512832641601563
 20
-5.1871700286865234
 11
 73.512832641601563
 21
-8.1871681213378906
  0
LINE
  8
0
  6
CONTINUOUS
 62
     3
 10
 75.912834167480469
 20
 72.312850952148438
 11
 71.512836456298828
 21
 72.312850952148438
  0
LINE
  8
0
  6
CONTINUOUS
 62
     3
 10
 75.912834167480469
 20
 57.312847137451172
 11
 71.512836456298828
 21
 57.312847137451172
  0
ARC
  8
0
  6
CONTINUOUS
 62
     3
 10
 71.512836456298828
 20
 57.812847137451172
 40
 0.5
 50
-179.9999980615126
 51
-90.000000851989171
  0
LINE
  8
0
  6
CONTINUOUS
 62
     3
 10
 71.012836456298828
 20
 57.812847137451172
 11
 71.012836456298828
 21
 71.812850952148438
  0
ARC
  8
0
  6
CONTINUOUS
 62
     3
 10
 71.512836456298828
 20
 71.812850952148438
 40
 0.5
 50
 90.000004039712721
 51
-179.9999980615126
  0
LINE
  8
0
  6
CONTINUOUS
 62
     3
 10
 75.912834167480469
 20
 72.312850952148438
 11
 75.912811279296875
 21
 75.312858581542969
  0
LINE
  8
0
  6
DOT
 62
     3
 10
 73.512832641601563
 20
 57.312847137451172
 11
 73.512832641601563
 21
 72.312850952148438
  0
LINE
  8
0
  6
DOT
 62
     3
 10
 75.912834167480469
 20
 57.312847137451172
 11
 75.912834167480469
 21
 72.312850952148438
  0
LINE
  8
0
  6
CONTINUOUS
 62
     3
 10
-60.88348388671875
 20
 69.812858581542969
 11
-42.083488464355469
 21
 69.812858581542969
  0
ARC
  8
0
  6
CONTINUOUS
 62
     3
 10
-60.88348388671875
 20
 69.312858581542969
 40
 0.5
 50
 90.000004039712721
 51
-179.9999980615126
  0
ARC
  8
0
  6
CONTINUOUS
 62
     3
 10
-42.083488464355469
 20
 69.312858581542969
 40
 0.5
 50
 0
 51
 90.000004039712721
  0
LINE
  8
0
  6
CONTINUOUS
 62
     3
 10
-60.88348388671875
 20
 39.812850952148438
 11
-42.083488464355469
 21
 39.812850952148438
  0
ARC
  8
0
  6
CONTINUOUS
 62
     3
 10
-60.88348388671875
 20
 40.312850952148438
 40
 0.5
 50
-179.9999980615126
 51
-90.000000851989171
  0
ARC
  8
0
  6
CONTINUOUS
 62
     3
 10
-42.083488464355469
 20
 40.312850952148438
 40
 0.5
 50
-90.000000851989171
 51
 0
  0
LINE
  8
0
  6
CONTINUOUS
 62
     3
 10
-41.583488464355469
 20
 69.312858581542969
 11
-41.583488464355469
 21
 40.312850952148438
  0
LINE
  8
0
  6
DOT
 62
     3
 10
-44.083488464355469
 20
 69.812858581542969
 11
-44.083488464355469
 21
 39.812850952148438
  0
LINE
  8
0
  6
DOT
 62
     3
 10
-49.083484649658203
 20
 69.812858581542969
 11
-49.083484649658203
 21
 39.812850952148438
  0
LINE
  8
0
  6
CONTINUOUS
 62
     3
 10
-61.38348388671875
 20
 67.312850952148438
 11
-80.683479309082031
 21
 67.312850952148438
  0
LINE
  8
0
  6
DOT
 62
     3
 10
-49.583457946777344
 20
 67.312850952148438
 11
-61.38348388671875
 21
 67.312850952148438
  0
LINE
  8
0
  6
CONTINUOUS
 62
     3
 10
-61.38348388671875
 20
 69.312858581542969
 11
-61.38348388671875
 21
 67.312850952148438
  0
LINE
  8
0
  6
CONTINUOUS
 62
     3
 10
-61.38348388671875
 20
 42.312854766845703
 11
-80.683456420898437
 21
 42.312854766845703
  0
ARC
  8
0
  6
CONTINUOUS
 62
     3
 10
-80.683456420898437
 20
 43.312854766845703
 40
 1
 50
-179.9999980615126
 51
-90.000000851989171
  0
LINE
  8
0
  6
DOT
 62
     3
 10
-49.583457946777344
 20
 42.312854766845703
 11
-61.38348388671875
 21
 42.312854766845703
  0
LINE
  8
0
  6
CONTINUOUS
 62
     3
 10
-61.38348388671875
 20
 42.312854766845703
 11
-61.38348388671875
 21
 40.312850952148438
  0
LINE
  8
0
  6
CONTINUOUS
 62
     3
 10
-81.683456420898437
 20
 43.312854766845703
 11
-81.683456420898437
 21
 47.312843322753906
  0
LINE
  8
0
  6
CONTINUOUS
 62
     3
 10
-81.683479309082031
 20
 62.312843322753906
 11
-81.683479309082031
 21
 66.162849426269531
  0
ARC
  8
0
  6
CONTINUOUS
 62
     3
 10
-80.683479309082031
 20
 66.162849426269531
 40
 1
 50
 90.000004039712721
 51
-179.9999980615126
  0
LINE
  8
0
  6
DOT
 62
     3
 10
-69.083480834960938
 20
 67.312850952148438
 11
-69.083480834960938
 21
 42.312854766845703
  0
LINE
  8
0
  6
DOT
 62
     3
 10
-64.08349609375
 20
 67.312850952148438
 11
-64.08349609375
 21
 42.312854766845703
  0
LINE
  8
0
  6
CONTINUOUS
 62
     3
 10
-81.683456420898437
 20
 62.312843322753906
 11
-86.083450317382813
 21
 62.312843322753906
  0
LINE
  8
0
  6
CONTINUOUS
 62
     3
 10
-81.683456420898437
 20
 47.312843322753906
 11
-86.083450317382813
 21
 47.312843322753906
  0
ARC
  8
0
  6
CONTINUOUS
 62
     3
 10
-86.083450317382813
 20
 47.812843322753906
 40
 0.5
 50
-179.9999980615126
 51
-90.000000851989171
  0
LINE
  8
0
  6
CONTINUOUS
 62
     3
 10
-86.583450317382812
 20
 47.812843322753906
 11
-86.583450317382812
 21
 61.812843322753906
  0
ARC
  8
0
  6
CONTINUOUS
 62
     3
 10
-86.083450317382813
 20
 61.812843322753906
 40
 0.5
 50
 90.000004039712721
 51
-179.9999980615126
  0
LINE
  8
0
  6
CONTINUOUS
 62
     3
 10
-81.683456420898437
 20
 62.312843322753906
 11
-81.683479309082031
 21
 65.162849426269531
  0
LINE
  8
0
  6
DOT
 62
     3
 10
-84.083457946777344
 20
 47.312843322753906
 11
-84.083457946777344
 21
 62.312843322753906
  0
LINE
  8
0
  6
DOT
 62
     3
 10
-81.683456420898437
 20
 47.312843322753906
 11
-81.683456420898437
 21
 62.312843322753906
  0
LINE
  8
0
  6
DOT
 62
     3
 10
-168.75665283203125
 20
-15.187156677246094
 11
-140.75663757324219
 21
-15.187156677246094
  0
ARC
  8
0
  6
DOT
 62
     3
 10
-168.75665283203125
 20
-14.187158584594727
 40
 1
 50
-179.9999980615126
 51
-90.000000851989171
  0
LINE
  8
0
  6
CONTINUOUS
 62
     3
 10
-166.75663757324219
 20
-2.6871457099914551
 11
-142.75663757324219
 21
-2.6871457099914551
  0
LINE
  8
0
  6
CONTINUOUS
 62
     3
 10
-140.25663757324219
 20
-5.1871500015258789
 11
-142.25663757324219
 21
-5.1871500015258789
  0
LINE
  8
0
  6
CONTINUOUS
 62
     3
 10
-167.25663757324219
 20
-5.1871500015258789
 11
-169.25665283203125
 21
-5.1871500015258789
  0
LINE
  8
0
  6
CONTINUOUS
 62
     3
 10
-169.75665283203125
 20
-5.6871500015258789
 11
-169.75665283203125
 21
-15.687150955200195
  0
ARC
  8
0
  6
CONTINUOUS
 62
     3
 10
-169.25665283203125
 20
-5.6871500015258789
 40
 0.5
 50
 90.000004039712721
 51
-179.9999980615126
  0
LINE
  8
0
  6
CONTINUOUS
 62
     3
 10
-139.75663757324219
 20
-5.6871500015258789
 11
-139.75663757324219
 21
-15.687150955200195
  0
ARC
  8
0
  6
CONTINUOUS
 62
     3
 10
-140.25663757324219
 20
-5.6871500015258789
 40
 0.5
 50
 0
 51
 90.000004039712721
  0
ARC
  8
0
  6
DOT
 62
     3
 10
-140.75663757324219
 20
-14.187158584594727
 40
 1
 50
-90.000000851989171
 51
 0
  0
LINE
  8
0
  6
DOT
 62
     3
 10
-169.75665283203125
 20
-7.5871477127075195
 11
-139.75663757324219
 21
-7.5871477127075195
  0
LINE
  8
0
  6
DOT
 62
     3
 10
-139.75663757324219
 20
-12.787147521972656
 11
-169.75665283203125
 21
-12.787147521972656
  0
LINE
  8
0
  6
CONTINUOUS
 62
     3
 10
-167.25663757324219
 20
-32.1871337890625
 11
-167.25663757324219
 21
-41.1871337890625
  0
LINE
  8
0
  6
CONTINUOUS
 62
     3
 10
-167.25663757324219
 20
-3.1871452331542969
 11
-167.25663757324219
 21
-32.1871337890625
  0
ARC
  8
0
  6
CONTINUOUS
 62
     3
 10
-166.75663757324219
 20
-3.1871452331542969
 40
 0.5
 50
 90.000004039712721
 51
-179.9999980615126
  0
LINE
  8
0
  6
CONTINUOUS
 62
     3
 10
-142.25663757324219
 20
-41.1871337890625
 11
-142.25663757324219
 21
-32.1871337890625
  0
LINE
  8
0
  6
CONTINUOUS
 62
     3
 10
-142.25663757324219
 20
-32.1871337890625
 11
-142.25663757324219
 21
-3.1871452331542969
  0
ARC
  8
0
  6
CONTINUOUS
 62
     3
 10
-142.75663757324219
 20
-3.1871452331542969
 40
 0.5
 50
 0
 51
 90.000004039712721
  0
LINE
  8
0
  6
CONTINUOUS
 62
     3
 10
-166.25663757324219
 20
-42.1871337890625
 11
-143.25663757324219
 21
-42.1871337890625
  0
ARC
  8
0
  6
CONTINUOUS
 62
     3
 10
-166.25663757324219
 20
-41.1871337890625
 40
 1
 50
-179.9999980615126
 51
-90.000000851989171
  0
ARC
  8
0
  6
CONTINUOUS
 62
     3
 10
-143.25663757324219
 20
-41.1871337890625
 40
 1
 50
-90.000000851989171
 51
 0
  0
LINE
  8
0
  6
CONTINUOUS
 62
     3
 10
-169.25665283203125
 20
-16.187150955200195
 11
-167.25663757324219
 21
-16.187150955200195
  0
ARC
  8
0
  6
CONTINUOUS
 62
     3
 10
-169.25665283203125
 20
-15.687150955200195
 40
 0.5
 50
-179.9999980615126
 51
-90.000000851989171
  0
LINE
  8
0
  6
CONTINUOUS
 62
     3
 10
-142.25663757324219
 20
-16.187150955200195
 11
-140.25663757324219
 21
-16.187150955200195
  0
ARC
  8
0
  6
CONTINUOUS
 62
     3
 10
-140.25663757324219
 20
-15.687150955200195
 40
 0.5
 50
-90.000000851989171
 51
 0
  0
TEXT
  8
3
  6
CONTINUOUS
 62
     7
 10
 68.521273326873782
 20
 109.09233701229095
 11
 86.381273555755612
 21
 109.09233701229095
 40
 3.2000000476837158
 41
 0.8
  1
Ｕ形蝶番ピン
 50
 0
 72
  5
  0
LINE
  8
0
  6
CONTINUOUS
 62
     2
 10
 92.0128173828125
 20
-5.1871442794799805
 11
 73.5128173828125
 21
-5.1871442794799805
  0
ARC
  8
0
  6
CONTINUOUS
 62
     2
 10
 92.0128173828125
 20
-9.1871414184570312
 40
 4
 50
 0
 51
 90.000004039712721
  0
LINE
  8
0
  6
CONTINUOUS
 62
     2
 10
 96.012802124023437
 20
-8.6871480941772461
 11
 96.012802124023437
 21
-13.187152862548828
  0
ARC
  8
0
  6
CONTINUOUS
 62
     2
 10
 92.0128173828125
 20
-13.187152862548828
 40
 4
 50
-90.000000851989171
 51
 0
  0
LINE
  8
0
  6
CONTINUOUS
 62
     2
 10
 92.062820434570313
 20
-17.187149047851563
 11
 89.062820434570313
 21
-17.187149047851563
  0
ARC
  8
0
  6
CONTINUOUS
 62
     2
 10
 89.062820434570313
 20
-20.18714714050293
 40
 3
 50
 90.000004039712721
 51
-179.9999980615126
  0
CIRCLE
  8
0
  6
CONTINUOUS
 62
     2
 10
 91.0128173828125
 20
-10.187166213989258
 40
 2.5000002384185791
  0
LINE
  8
0
  6
CONTINUOUS
 62
     2
 10
 86.062835693359375
 20
-20.18714714050293
 11
 86.062835693359375
 21
-29.187141418457031
  0
ARC
  8
0
  6
CONTINUOUS
 62
     2
 10
 89.062820434570313
 20
-29.187141418457031
 40
 3
 50
-179.9999980615126
 51
-90.000000851989171
  0
LINE
  8
0
  6
CONTINUOUS
 62
     2
 10
 89.062820434570313
 20
-32.187145233154297
 11
 94.512771606445313
 21
-32.187145233154297
  0
ARC
  8
0
  6
CONTINUOUS
 62
     2
 10
 94.512771606445313
 20
-35.187152862548828
 40
 3
 50
 0
 51
 90.000004039712721
  0
LINE
  8
0
  6
DOT
 62
     2
 10
 96.2127685546875
 20
-37.187149047851562
 11
 98.512771606445313
 21
-37.187149047851562
  0
ARC
  8
0
  6
CONTINUOUS
 62
     2
 10
 98.512771606445313
 20
-36.187152862548828
 40
 1
 50
-179.99994341999832
 51
-90.000000851989171
  0
LINE
  8
0
  6
CONTINUOUS
 62
     2
 10
 97.51275634765625
 20
-36.187152862548828
 11
 97.51275634765625
 21
-35.187152862548828
  0
LINE
  8
0
  6
CONTINUOUS
 62
     2
 10
 73.5128173828125
 20
-5.1871442794799805
 11
 73.5128173828125
 21
-65.187141418457031
  0
LINE
  8
0
  6
CONTINUOUS
 62
     2
 10
 98.512771606445313
 20
-37.187149047851562
 11
 98.512771606445313
 21
-65.187141418457031
  0
LINE
  8
0
  6
DOT
 62
     2
 10
 75.812820434570312
 20
-5.1871442794799805
 11
 75.812820434570312
 21
-65.187141418457031
  0
LINE
  8
0
  6
DOT
 62
     2
 10
 96.2127685546875
 20
-37.187149047851562
 11
 96.2127685546875
 21
-65.187141418457031
  0
LINE
  8
0
  6
CONTINUOUS
 62
     3
 10
 98.61279296875
 20
-37.187145233154297
 11
 105.27898406982422
 21
-31.735321044921875
  0
LINE
  8
0
  6
CONTINUOUS
 62
     2
 10
 148.31283569335937
 20
-36.669483184814453
 11
 148.31283569335937
 21
-5.1871500015258789
  0
LINE
  8
0
  6
CONTINUOUS
 62
     2
 10
 173.71282958984375
 20
-36.669483184814453
 11
 173.71282958984375
 21
-5.1871500015258789
  0
LINE
  8
0
  6
CONTINUOUS
 62
     2
 10
 147.01283264160156
 20
-37.169483184814453
 11
 152.01283264160156
 21
-37.169483184814453
  0
ARC
  8
0
  6
CONTINUOUS
 62
     2
 10
 148.81283569335937
 20
-36.669483184814453
 40
 0.5
 50
-179.9999980615126
 51
-90.000000851989171
  0
ARC
  8
0
  6
CONTINUOUS
 62
     2
 10
 147.01283264160156
 20
-36.169483184814453
 40
 1
 50
-179.9999980615126
 51
-90.000000851989171
  0
LINE
  8
0
  6
CONTINUOUS
 62
     2
 10
 170.01283264160156
 20
-37.169483184814453
 11
 175.01283264160156
 21
-37.169483184814453
  0
ARC
  8
0
  6
CONTINUOUS
 62
     2
 10
 173.21284484863281
 20
-36.669483184814453
 40
 0.5
 50
-90.000000851989171
 51
 0
  0
ARC
  8
0
  6
CONTINUOUS
 62
     2
 10
 175.01283264160156
 20
-36.169483184814453
 40
 1
 50
-90.000000851989171
 51
 0
  0
LINE
  8
0
  6
CONTINUOUS
 62
     2
 10
 146.01283264160156
 20
-5.1871500015258789
 11
 169.01284790039062
 21
-5.1871500015258789
  0
LINE
  8
0
  6
CONTINUOUS
 62
     2
 10
 173.01283264160156
 20
-5.1871500015258789
 11
 176.01283264160156
 21
-5.1871500015258789
  0
LINE
  8
0
  6
CONTINUOUS
 62
     2
 10
 146.01283264160156
 20
-17.187105178833008
 11
 148.31283569335937
 21
-17.187105178833008
  0
LINE
  8
0
  6
CONTINUOUS
 62
     2
 10
 173.71284484863281
 20
-17.187105178833008
 11
 176.01283264160156
 21
-17.187105178833008
  0
LINE
  8
0
  6
CONTINUOUS
 62
     2
 10
 146.01283264160156
 20
-32.187126159667969
 11
 148.31283569335937
 21
-32.187126159667969
  0
LINE
  8
0
  6
CONTINUOUS
 62
     2
 10
 173.71284484863281
 20
-32.187126159667969
 11
 176.01283264160156
 21
-32.187126159667969
  0
LINE
  8
0
  6
DOT
 62
     2
 10
 148.31283569335937
 20
-7.6871232986450195
 11
 146.01283264160156
 21
-7.6871232986450195
  0
LINE
  8
0
  6
DOT
 62
     2
 10
 148.31283569335937
 20
-12.68712043762207
 11
 146.01283264160156
 21
-12.68712043762207
  0
LINE
  8
0
  6
DOT
 62
     2
 10
 173.71284484863281
 20
-7.6871232986450195
 11
 176.01283264160156
 21
-7.6871232986450195
  0
LINE
  8
0
  6
DOT
 62
     2
 10
 173.71284484863281
 20
-12.68712043762207
 11
 176.01283264160156
 21
-12.68712043762207
  0
LINE
  8
0
  6
CONTINUOUS
 62
     2
 10
 146.01283264160156
 20
-5.1871500015258789
 11
 146.01283264160156
 21
-65.187141418457031
  0
LINE
  8
0
  6
CONTINUOUS
 62
     2
 10
 152.01283264160156
 20
-37.169483184814453
 11
 152.01283264160156
 21
-65.187141418457031
  0
LINE
  8
0
  6
CONTINUOUS
 62
     2
 10
 170.01283264160156
 20
-37.169483184814453
 11
 170.01283264160156
 21
-65.187141418457031
  0
LINE
  8
0
  6
CONTINUOUS
 62
     2
 10
 176.01283264160156
 20
-5.1871500015258789
 11
 176.01283264160156
 21
-65.187141418457031
  0
LINE
  8
0
  6
DOT
 62
     2
 10
 149.71282958984375
 20
-37.169483184814453
 11
 149.71282958984375
 21
-65.187141418457031
  0
LINE
  8
0
  6
DOT
 62
     2
 10
 172.31283569335937
 20
-37.169483184814453
 11
 172.31283569335937
 21
-65.187141418457031
  0
LINE
  8
0
  6
CONTINUOUS
 62
     3
 10
-45.583450317382813
 20
-5.1871633529663086
 11
-73.683456420898437
 21
-5.1871633529663086
  0
ARC
  8
0
  6
CONTINUOUS
 62
     3
 10
-73.683456420898437
 20
-4.6871633529663086
 40
 0.5
 50
-179.9999980615126
 51
-90.000000851989171
  0
ARC
  8
0
  6
CONTINUOUS
 62
     3
 10
-60.883468627929688
 20
-5.6871633529663086
 40
 0.5
 50
 90.000004039712721
 51
-179.9999980615126
  0
LINE
  8
0
  6
CONTINUOUS
 62
     3
 10
-41.583446502685547
 20
-9.1871604919433594
 11
-41.583446502685547
 21
-11.187166213989258
  0
ARC
  8
0
  6
CONTINUOUS
 62
     3
 10
-45.583450317382813
 20
-9.1871604919433594
 40
 4
 50
 0
 51
 90.000004039712721
  0
ARC
  8
0
  6
CONTINUOUS
 62
     3
 10
-45.583450317382813
 20
-11.187166213989258
 40
 4
 50
-90.000000851989171
 51
 0
  0
LINE
  8
0
  6
CONTINUOUS
 62
     3
 10
-45.583450317382813
 20
-15.187156677246094
 11
-46.583469390869141
 21
-15.187156677246094
  0
LINE
  8
0
  6
CONTINUOUS
 62
     3
 10
-51.583465576171875
 20
-20.187154769897461
 11
-51.583465576171875
 21
-30.1871337890625
  0
ARC
  8
0
  6
CONTINUOUS
 62
     3
 10
-46.583469390869141
 20
-20.187154769897461
 40
 5
 50
 90.000004039712721
 51
-179.9999980615126
  0
ARC
  8
0
  6
CONTINUOUS
 62
     3
 10
-53.583465576171875
 20
-30.1871337890625
 40
 2
 50
-50.722505586208776
 51
 0
  0
LINE
  8
0
  6
CONTINUOUS
 62
     3
 10
-81.483497619628906
 20
-40.187141418457031
 11
-81.483497619628906
 21
-3.6871576309204102
  0
LINE
  8
0
  6
CONTINUOUS
 62
     3
 10
-61.483505249023438
 20
-40.187141418457031
 11
-61.483505249023438
 21
-36.187137603759766
  0
LINE
  8
0
  6
CONTINUOUS
 62
     3
 10
-63.483505249023438
 20
-42.1871337890625
 11
-79.483497619628906
 21
-42.1871337890625
  0
ARC
  8
0
  6
CONTINUOUS
 62
     3
 10
-63.483505249023438
 20
-40.187141418457031
 40
 2
 50
-90.000000851989171
 51
 0
  0
ARC
  8
0
  6
CONTINUOUS
 62
     3
 10
-79.483497619628906
 20
-40.187141418457031
 40
 2
 50
-179.9999980615126
 51
-90.000000851989171
  0
LINE
  8
0
  6
CONTINUOUS
 62
     3
 10
-60.883468627929688
 20
-16.187150955200195
 11
-49.583457946777344
 21
-16.187150955200195
  0
ARC
  8
0
  6
CONTINUOUS
 62
     3
 10
-60.883468627929688
 20
-15.687150955200195
 40
 0.5
 50
-179.9999980615126
 51
-90.000000851989171
  0
LINE
  8
0
  6
CONTINUOUS
 62
     3
 10
-61.483505249023438
 20
-36.187137603759766
 11
-58.983505249023438
 21
-36.187137603759766
  0
LINE
  8
0
  6
CONTINUOUS
 62
     3
 10
-61.383468627929688
 20
-15.687150955200195
 11
-61.383468627929688
 21
-5.6871633529663086
  0
LINE
  8
0
  6
CONTINUOUS
 62
     3
 10
-81.483451843261719
 20
-5.1871633529663086
 11
-84.083465576171875
 21
-5.1871633529663086
  0
ARC
  8
0
  6
CONTINUOUS
 62
     3
 10
-80.483451843261719
 20
-3.6871576309204102
 40
 1
 50
 90.000004039712721
 51
-179.9999980615126
  0
LINE
  8
0
  6
CONTINUOUS
 62
     3
 10
-75.6834716796875
 20
-2.6871585845947266
 11
-85.083465576171875
 21
-2.6871585845947266
  0
ARC
  8
0
  6
CONTINUOUS
 62
     3
 10
-75.6834716796875
 20
-4.1871576309204102
 40
 1.5
 50
 0
 51
 90.000004039712721
  0
ARC
  8
0
  6
CONTINUOUS
 62
     3
 10
-85.083465576171875
 20
-4.1871576309204102
 40
 1.5
 50
 90.000004039712721
 51
-179.9999980615126
  0
LINE
  8
0
  6
CONTINUOUS
 62
     3
 10
-86.583450317382812
 20
-4.1871576309204102
 11
-86.583450317382812
 21
-8.1871614456176758
  0
ARC
  8
0
  6
CONTINUOUS
 62
     3
 10
-85.583450317382813
 20
-8.1871614456176758
 40
 1
 50
-179.9999980615126
 51
-90.000000851989171
  0
LINE
  8
0
  6
CONTINUOUS
 62
     3
 10
-85.083465576171875
 20
-9.1871604919433594
 11
-85.583450317382813
 21
-9.1871604919433594
  0
ARC
  8
0
  6
CONTINUOUS
 62
     3
 10
-85.083465576171875
 20
-8.1871614456176758
 40
 1
 50
-90.000000851989171
 51
 0
  0
LINE
  8
0
  6
CONTINUOUS
 62
     3
 10
-74.183456420898438
 20
-4.6871633529663086
 11
-74.183456420898438
 21
-4.1618685722351074
  0
LINE
  8
0
  6
CONTINUOUS
 62
     3
 10
-84.083465576171875
 20
-5.1871633529663086
 11
-84.083465576171875
 21
-8.1871614456176758
  0
LINE
  8
0
  6
CONTINUOUS
 62
     3
 10
-58.983505249023438
 20
-36.187137603759766
 11
-52.317310333251953
 21
-31.735313415527344
  0
LINE
  8
0
  6
CONTINUOUS
 62
     3
 10
-2.910308837890625
 20
-15.187156677246094
 11
 26.089706420898438
 21
-15.187156677246094
  0
ARC
  8
0
  6
CONTINUOUS
 62
     3
 10
-2.910308837890625
 20
-14.687156677246094
 40
 0.5
 50
-179.9999980615126
 51
-90.000000851989171
  0
LINE
  8
0
  6
CONTINUOUS
 62
     3
 10
-0.4102993011474609
 20
-2.6871457099914551
 11
 23.589714050292969
 21
-2.6871457099914551
  0
LINE
  8
0
  6
CONTINUOUS
 62
     3
 10
-0.9102993011474609
 20
-3.1871452331542969
 11
-0.9102993011474609
 21
-5.1871500015258789
  0
ARC
  8
0
  6
CONTINUOUS
 62
     3
 10
-0.4102993011474609
 20
-3.1871452331542969
 40
 0.5
 50
 90.000004039712721
 51
-179.9999980615126
  0
LINE
  8
0
  6
CONTINUOUS
 62
     3
 10
 24.089713096618652
 20
-3.1871452331542969
 11
 24.089713096618652
 21
-5.1871500015258789
  0
ARC
  8
0
  6
CONTINUOUS
 62
     3
 10
 23.589714050292969
 20
-3.1871452331542969
 40
 0.5
 50
 0
 51
 90.000004039712721
  0
LINE
  8
0
  6
CONTINUOUS
 62
     3
 10
 26.089706420898438
 20
-5.1871500015258789
 11
-2.910308837890625
 21
-5.1871500015258789
  0
LINE
  8
0
  6
CONTINUOUS
 62
     3
 10
-3.410308837890625
 20
-5.6871500015258789
 11
-3.410308837890625
 21
-15.687150955200195
  0
ARC
  8
0
  6
CONTINUOUS
 62
     3
 10
-2.910308837890625
 20
-5.6871500015258789
 40
 0.5
 50
 90.000004039712721
 51
-179.9999980615126
  0
LINE
  8
0
  6
CONTINUOUS
 62
     3
 10
 26.589706420898438
 20
-5.6871500015258789
 11
 26.589706420898438
 21
-15.687150955200195
  0
ARC
  8
0
  6
CONTINUOUS
 62
     3
 10
 26.089706420898438
 20
-14.687156677246094
 40
 0.5
 50
-90.000000851989171
 51
 0
  0
ARC
  8
0
  6
CONTINUOUS
 62
     3
 10
 26.089706420898438
 20
-5.6871500015258789
 40
 0.5
 50
 0
 51
 90.000004039712721
  0
LINE
  8
0
  6
DOT
 62
     3
 10
-3.410308837890625
 20
-7.5871477127075195
 11
 26.589706420898438
 21
-7.5871477127075195
  0
LINE
  8
0
  6
DOT
 62
     3
 10
 26.589706420898438
 20
-12.787147521972656
 11
-3.410308837890625
 21
-12.787147521972656
  0
LINE
  8
0
  6
CONTINUOUS
 62
     3
 10
-0.9102993011474609
 20
-16.187150955200195
 11
-0.9102993011474609
 21
-41.1871337890625
  0
LINE
  8
0
  6
DOT
 62
     3
 10
-0.9102993011474609
 20
-5.1871500015258789
 11
-0.9102993011474609
 21
-16.187150955200195
  0
LINE
  8
0
  6
CONTINUOUS
 62
     3
 10
 24.089713096618652
 20
-41.1871337890625
 11
 24.089713096618652
 21
-16.187150955200195
  0
LINE
  8
0
  6
DOT
 62
     3
 10
 24.089713096618652
 20
-16.187150955200195
 11
 24.089713096618652
 21
-5.1871500015258789
  0
LINE
  8
0
  6
CONTINUOUS
 62
     3
 10
-0.9102993011474609
 20
-32.1871337890625
 11
 24.089713096618652
 21
-32.1871337890625
  0
LINE
  8
0
  6
CONTINUOUS
 62
     3
 10
 0.0897006988525391
 20
-42.1871337890625
 11
 23.089712142944336
 21
-42.1871337890625
  0
ARC
  8
0
  6
CONTINUOUS
 62
     3
 10
 0.0897006988525391
 20
-41.1871337890625
 40
 1
 50
-179.9999980615126
 51
-90.000000851989171
  0
ARC
  8
0
  6
CONTINUOUS
 62
     3
 10
 23.089712142944336
 20
-41.1871337890625
 40
 1
 50
-90.000000851989171
 51
 0
  0
LINE
  8
0
  6
CONTINUOUS
 62
     3
 10
-0.9102993011474609
 20
-37.187129974365234
 11
 24.089713096618652
 21
-37.187129974365234
  0
LINE
  8
0
  6
CONTINUOUS
 62
     3
 10
-74.183456420898438
 20
 67.312850952148438
 11
-74.183456420898438
 21
 42.312854766845703
  0
LINE
  8
0
  6
CONTINUOUS
 62
     3
 10
 146.5128173828125
 20
-15.187164306640625
 11
 175.51283264160156
 21
-15.187164306640625
  0
ARC
  8
0
  6
CONTINUOUS
 62
     3
 10
 175.51283264160156
 20
-14.687164306640625
 40
 0.5
 50
-90.000000851989171
 51
 0
  0
LINE
  8
0
  6
CONTINUOUS
 62
     3
 10
 149.0128173828125
 20
-2.6871519088745117
 11
 172.51283264160156
 21
-2.6871519088745117
  0
ARC
  8
0
  6
DOT
 62
     3
 10
 168.01280212402344
 20
-3.1871514320373535
 40
 0.5
 50
 0
 51
 90.000004039712721
  0
ARC
  8
0
  6
DOT
 62
     3
 10
 154.01283264160156
 20
-3.1871514320373535
 40
 0.5
 50
 90.000004039712721
 51
-179.9999980615126
  0
LINE
  8
0
  6
CONTINUOUS
 62
     3
 10
 148.5128173828125
 20
-3.1871514320373535
 11
 148.5128173828125
 21
-5.1871566772460938
  0
ARC
  8
0
  6
CONTINUOUS
 62
     3
 10
 149.0128173828125
 20
-3.1871514320373535
 40
 0.5
 50
 90.000004039712721
 51
-179.9999980615126
  0
LINE
  8
0
  6
CONTINUOUS
 62
     3
 10
 173.51283264160156
 20
-3.6871514320373535
 11
 173.51283264160156
 21
-5.1871566772460938
  0
ARC
  8
0
  6
CONTINUOUS
 62
     3
 10
 172.51283264160156
 20
-3.6871514320373535
 40
 1
 50
 0
 51
 90.000004039712721
  0
LINE
  8
0
  6
CONTINUOUS
 62
     3
 10
 175.51283264160156
 20
-5.1871566772460938
 11
 146.5128173828125
 21
-5.1871566772460938
  0
LINE
  8
0
  6
CONTINUOUS
 62
     3
 10
 146.0128173828125
 20
-5.6871566772460938
 11
 146.0128173828125
 21
-15.687156677246094
  0
ARC
  8
0
  6
CONTINUOUS
 62
     3
 10
 146.5128173828125
 20
-5.6871566772460938
 40
 0.5
 50
 90.000004039712721
 51
-179.9999980615126
  0
ARC
  8
0
  6
CONTINUOUS
 62
     3
 10
 146.5128173828125
 20
-14.687164306640625
 40
 0.5
 50
-179.9999980615126
 51
-90.000000851989171
  0
LINE
  8
0
  6
CONTINUOUS
 62
     3
 10
 176.01283264160156
 20
-5.6871566772460938
 11
 176.01283264160156
 21
-15.687156677246094
  0
ARC
  8
0
  6
CONTINUOUS
 62
     3
 10
 175.51283264160156
 20
-5.6871566772460938
 40
 0.5
 50
 0
 51
 90.000004039712721
  0
LINE
  8
0
  6
DOT
 62
     3
 10
 146.0128173828125
 20
-7.6871557235717773
 11
 176.01283264160156
 21
-7.6871557235717773
  0
LINE
  8
0
  6
DOT
 62
     3
 10
 176.01283264160156
 20
-12.687158584594727
 11
 146.0128173828125
 21
-12.687158584594727
  0
LINE
  8
0
  6
CONTINUOUS
 62
     3
 10
 148.5128173828125
 20
-16.187156677246094
 11
 148.5128173828125
 21
-41.687141418457031
  0
LINE
  8
0
  6
DOT
 62
     3
 10
 148.5128173828125
 20
-5.1871566772460938
 11
 148.5128173828125
 21
-16.187156677246094
  0
LINE
  8
0
  6
CONTINUOUS
 62
     3
 10
 173.51283264160156
 20
-41.687141418457031
 11
 173.51283264160156
 21
-16.187156677246094
  0
LINE
  8
0
  6
DOT
 62
     3
 10
 173.51283264160156
 20
-16.187156677246094
 11
 173.51283264160156
 21
-5.1871566772460938
  0
LINE
  8
0
  6
CONTINUOUS
 62
     3
 10
 148.5128173828125
 20
-32.187141418457031
 11
 173.51283264160156
 21
-32.187141418457031
  0
LINE
  8
0
  6
CONTINUOUS
 62
     3
 10
 149.0128173828125
 20
-42.187141418457031
 11
 173.01283264160156
 21
-42.187141418457031
  0
ARC
  8
0
  6
CONTINUOUS
 62
     3
 10
 173.01283264160156
 20
-41.687141418457031
 40
 0.5
 50
-90.000000851989171
 51
 0
  0
ARC
  8
0
  6
CONTINUOUS
 62
     3
 10
 149.0128173828125
 20
-41.687141418457031
 40
 0.5
 50
-179.9999980615126
 51
-90.000000851989171
  0
LINE
  8
0
  6
CONTINUOUS
 62
     3
 10
 148.5128173828125
 20
-37.187137603759766
 11
 173.51283264160156
 21
-37.187137603759766
  0
LINE
  8
0
  6
DOT
 62
     3
 10
 167.51280212402344
 20
-2.6871519088745117
 11
 154.51283264160156
 21
-2.6871519088745117
  0
LINE
  8
0
  6
DOT
 62
     3
 10
 168.51280212402344
 20
-3.1871514320373535
 11
 168.51280212402344
 21
-8.6871547698974609
  0
LINE
  8
0
  6
DOT
 62
     3
 10
 153.51283264160156
 20
-3.1871514320373535
 11
 153.51283264160156
 21
-8.6871547698974609
  0
LINE
  8
0
  6
DOT
 62
     3
 10
 154.01283264160156
 20
-9.1871547698974609
 11
 168.01280212402344
 21
-9.1871547698974609
  0
ARC
  8
0
  6
DOT
 62
     3
 10
 168.01280212402344
 20
-8.6871547698974609
 40
 0.5
 50
-90.000000851989171
 51
 0
  0
ARC
  8
0
  6
DOT
 62
     3
 10
 154.01283264160156
 20
-8.6871547698974609
 40
 0.5
 50
-179.9999980615126
 51
-90.000000851989171
  0
CIRCLE
  8
0
  6
CONTINUOUS
 62
     3
 10
-66.583465576171875
 20
-10.187179565429687
 40
 2.9000000953674316
  0
CIRCLE
  8
0
  6
CONTINUOUS
 62
     3
 10
-46.583450317382813
 20
-10.187160491943359
 40
 2.5999999046325684
  0
LINE
  8
0
  6
DIVIDE
 62
     6
 10
 138.70423889160156
 20
 36.364009857177734
 11
 116.46791076660156
 21
-24.729936599731445
  0
ARC
  8
0
  6
DIVIDE
 62
     6
 10
 113.46089172363281
 20
-23.635478973388672
 40
 3.2000000476837158
 50
-109.99999719624358
 51
-19.999986326341588
  0
ARC
  8
0
  6
DIVIDE
 62
     6
 10
 113.46087646484375
 20
-23.635465621948242
 40
 1.6000000238418579
 50
-109.99999719624358
 51
-19.999986326341588
  0
LINE
  8
0
  6
DIVIDE
 62
     6
 10
 114.96438598632812
 20
-24.182704925537109
 11
 137.20074462890625
 21
 36.911235809326172
  0
LINE
  8
0
  6
DIVIDE
 62
     6
 10
 119.68428039550781
 20
-11.214947700500488
 11
 116.43507385253906
 21
-20.142024993896484
  0
LINE
  8
0
  6
DIVIDE
 62
     6
 10
 117.52298736572266
 20
-10.428293228149414
 11
 114.27378845214844
 21
-19.355377197265625
  0
ARC
  8
0
  6
DIVIDE
 62
     6
 10
 115.13057708740234
 20
-11.153789520263672
 40
 4.3000001907348633
 50
-19.999986326341588
 51
 70.000041846404741
  0
ARC
  8
0
  6
DIVIDE
 62
     6
 10
 115.13057708740234
 20
-11.153789520263672
 40
 2
 50
-19.999986326341588
 51
 70.000041846404741
  0
LINE
  8
0
  6
DIVIDE
 62
     6
 10
 116.43507385253906
 20
-20.142024993896484
 11
 114.27378845214844
 21
-19.355377197265625
  0
LINE
  8
0
  6
DIVIDE
 62
     6
 10
 113.46886444091797
 20
-9.7202997207641602
 11
 115.81462097167969
 21
-9.2744150161743164
  0
LINE
  8
0
  6
DIVIDE
 62
     6
 10
 118.31621551513672
 20
-14.973690032958984
 11
 118.12825775146484
 21
-14.905282974243164
  0
LINE
  8
0
  6
DIVIDE
 62
     6
 10
 118.12825775146484
 20
-14.905282974243164
 11
 117.44422149658203
 21
-16.784671783447266
  0
LINE
  8
0
  6
DIVIDE
 62
     6
 10
 117.44422149658203
 20
-16.784671783447266
 11
 117.63216400146484
 21
-16.853076934814453
  0
LINE
  8
0
  6
DIVIDE
 62
     6
 10
 119.68428039550781
 20
-11.214947700500488
 11
 117.52298736572266
 21
-10.428293228149414
  0
LINE
  8
0
  6
DIVIDE
 62
     6
 10
 112.36643218994141
 20
-26.642480850219727
 11
 105.97651672363281
 21
-24.316741943359375
  0
LINE
  8
0
  6
DIVIDE
 62
     6
 10
 105.97651672363281
 20
-24.316741943359375
 11
 106.52375793457031
 21
-22.813230514526367
  0
LINE
  8
0
  6
DIVIDE
 62
     6
 10
 106.52375793457031
 20
-22.813230514526367
 11
 112.91365051269531
 21
-25.138957977294922
  0
LINE
  8
0
  6
DOT
 62
     3
 10
-167.25663757324219
 20
-7.2871503829956055
 11
-142.25663757324219
 21
-7.2871503829956055
  0
LINE
  8
0
  6
DOT
 62
     3
 10
-142.25663757324219
 20
-13.08714485168457
 11
-167.25663757324219
 21
-13.08714485168457
  0
LINE
  8
0
  6
CONTINUOUS
 62
     6
 10
-69.083457946777344
 20
 42.312854766845703
 11
-69.083457946777344
 21
 41.512851715087891
  0
LINE
  8
0
  6
CONTINUOUS
 62
     6
 10
-69.083457946777344
 20
 41.512851715087891
 11
-61.38348388671875
 21
 41.512851715087891
  0
LINE
  8
0
  6
DOT
 62
     6
 10
-61.38348388671875
 20
 41.512851715087891
 11
-56.583465576171875
 21
 41.512851715087891
  0
LINE
  8
0
  6
DOT
 62
     6
 10
-56.583465576171875
 20
 41.512851715087891
 11
-56.583465576171875
 21
 42.312854766845703
  0
LINE
  8
0
  6
CONTINUOUS
 62
     6
 10
 102.01279449462891
 20
-16.18718147277832
 11
 87.56280517578125
 21
-16.18718147277832
  0
LINE
  8
0
  6
CONTINUOUS
 62
     6
 10
 87.56280517578125
 20
-16.18718147277832
 11
 87.56280517578125
 21
-30.187187194824219
  0
LINE
  8
0
  6
CONTINUOUS
 62
     6
 10
 87.56280517578125
 20
-30.187187194824219
 11
 88.56280517578125
 21
-30.187187194824219
  0
LINE
  8
0
  6
CONTINUOUS
 62
     6
 10
 88.56280517578125
 20
-30.187187194824219
 11
 88.56280517578125
 21
-17.18718147277832
  0
LINE
  8
0
  6
CONTINUOUS
 62
     6
 10
 88.56280517578125
 20
-17.18718147277832
 11
 101.01279449462891
 21
-17.18718147277832
  0
ARC
  8
0
  6
CONTINUOUS
 62
     6
 10
 96.512794494628906
 20
-17.68718147277832
 40
 0.5
 50
 90.000004039712721
 51
-179.9999980615126
  0
LINE
  8
0
  6
CONTINUOUS
 62
     6
 10
 101.01279449462891
 20
-17.18718147277832
 11
 101.01279449462891
 21
-26.187183380126953
  0
LINE
  8
0
  6
CONTINUOUS
 62
     6
 10
 102.01279449462891
 20
-26.737720489501953
 11
 102.01279449462891
 21
-16.18718147277832
  0
LINE
  8
0
  6
CONTINUOUS
 62
     6
 10
 148.51284790039062
 20
-17.187156677246094
 11
 147.71284484863281
 21
-17.187156677246094
  0
LINE
  8
0
  6
CONTINUOUS
 62
     6
 10
 147.71284484863281
 20
-17.187156677246094
 11
 148.662841796875
 21
-30.187152862548828
  0
LINE
  8
0
  6
CONTINUOUS
 62
     3
 10
 96.712821960449219
 20
-16.18718147277832
 11
 108.01280975341797
 21
-16.18718147277832
  0
ARC
  8
0
  6
CONTINUOUS
 62
     3
 10
 96.712821960449219
 20
-15.687183380126953
 40
 0.5
 50
-179.9999980615126
 51
-90.000000851989171
  0
LINE
  8
0
  6
CONTINUOUS
 62
     6
 10
 96.012794494628906
 20
-17.68718147277832
 11
 96.012794494628906
 21
-25.687183380126953
  0
LINE
  8
0
  6
CONTINUOUS
 62
     6
 10
 147.71284484863281
 20
-17.187156677246094
 11
 146.51283264160156
 21
-17.187156677246094
  0
LINE
  8
0
  6
CONTINUOUS
 62
     6
 10
 146.01283264160156
 20
-17.687105178833008
 11
 146.01283264160156
 21
-25.687105178833008
  0
ARC
  8
0
  6
CONTINUOUS
 62
     6
 10
 146.51283264160156
 20
-17.687105178833008
 40
 0.5
 50
 90.000004039712721
 51
-179.9999980615126
  0
LINE
  8
0
  6
CONTINUOUS
 62
     6
 10
 96.56280517578125
 20
-30.187187194824219
 11
 96.56280517578125
 21
-29.011436462402344
  0
LINE
  8
0
  6
CONTINUOUS
 62
     6
 10
 101.01279449462891
 20
-26.187183380126953
 11
 96.512794494628906
 21
-26.187183380126953
  0
ARC
  8
0
  6
CONTINUOUS
 62
     6
 10
 96.512794494628906
 20
-25.687183380126953
 40
 0.5
 50
-179.9999980615126
 51
-90.000000851989171
  0
LINE
  8
0
  6
CONTINUOUS
 62
     6
 10
 101.01279449462891
 20
-26.187183380126953
 11
 96.559318542480469
 21
-29.005924224853516
  0
LINE
  8
0
  6
CONTINUOUS
 62
     6
 10
 96.56280517578125
 20
-30.187187194824219
 11
 102.01279449462891
 21
-26.737720489501953
  0
LINE
  8
0
  6
CONTINUOUS
 62
     6
 10
 146.51283264160156
 20
-26.187105178833008
 11
 148.26669311523438
 21
-26.187105178833008
  0
ARC
  8
0
  6
CONTINUOUS
 62
     6
 10
 146.51283264160156
 20
-25.687105178833008
 40
 0.5
 50
-179.9999980615126
 51
-90.000000851989171
  0
LINE
  8
0
  6
CONTINUOUS
 62
     6
 10
-55.483482360839844
 20
-16.187162399291992
 11
-70.033477783203125
 21
-16.187162399291992
  0
LINE
  8
0
  6
CONTINUOUS
 62
     6
 10
-70.033477783203125
 20
-16.187162399291992
 11
-70.033477783203125
 21
-30.187168121337891
  0
LINE
  8
0
  6
CONTINUOUS
 62
     6
 10
-70.033477783203125
 20
-30.187168121337891
 11
-69.033477783203125
 21
-30.187168121337891
  0
LINE
  8
0
  6
CONTINUOUS
 62
     6
 10
-69.033477783203125
 20
-30.187168121337891
 11
-69.033477783203125
 21
-17.187162399291992
  0
LINE
  8
0
  6
CONTINUOUS
 62
     6
 10
-69.033477783203125
 20
-17.187162399291992
 11
-56.483482360839844
 21
-17.187162399291992
  0
ARC
  8
0
  6
CONTINUOUS
 62
     6
 10
-60.983489990234375
 20
-17.687162399291992
 40
 0.5
 50
 90.000004039712721
 51
-179.9999980615126
  0
LINE
  8
0
  6
CONTINUOUS
 62
     6
 10
-56.483482360839844
 20
-17.187162399291992
 11
-56.483482360839844
 21
-26.187164306640625
  0
LINE
  8
0
  6
CONTINUOUS
 62
     6
 10
-55.483482360839844
 20
-26.737701416015625
 11
-55.483482360839844
 21
-16.187162399291992
  0
LINE
  8
0
  6
CONTINUOUS
 62
     6
 10
-61.483489990234375
 20
-17.687162399291992
 11
-61.483489990234375
 21
-25.687164306640625
  0
LINE
  8
0
  6
CONTINUOUS
 62
     6
 10
-61.033477783203125
 20
-30.187168121337891
 11
-61.033477783203125
 21
-29.011417388916016
  0
LINE
  8
0
  6
CONTINUOUS
 62
     6
 10
-56.483482360839844
 20
-26.187164306640625
 11
-60.983489990234375
 21
-26.187164306640625
  0
ARC
  8
0
  6
CONTINUOUS
 62
     6
 10
-60.983489990234375
 20
-25.687164306640625
 40
 0.5
 50
-179.9999980615126
 51
-90.000000851989171
  0
LINE
  8
0
  6
CONTINUOUS
 62
     6
 10
-56.483482360839844
 20
-26.187164306640625
 11
-61.036964416503906
 21
-29.005905151367188
  0
LINE
  8
0
  6
CONTINUOUS
 62
     6
 10
-61.033477783203125
 20
-30.187168121337891
 11
-55.483482360839844
 21
-26.737701416015625
  0
LINE
  8
0
  6
CONTINUOUS
 62
     3
 10
-2.910308837890625
 20
-16.187150955200195
 11
-0.9102993011474609
 21
-16.187150955200195
  0
ARC
  8
0
  6
CONTINUOUS
 62
     3
 10
-2.910308837890625
 20
-15.687150955200195
 40
 0.5
 50
-179.9999980615126
 51
-90.000000851989171
  0
LINE
  8
0
  6
CONTINUOUS
 62
     3
 10
 26.089706420898438
 20
-16.187150955200195
 11
 24.089713096618652
 21
-16.187150955200195
  0
ARC
  8
0
  6
CONTINUOUS
 62
     3
 10
 26.089706420898438
 20
-15.687150955200195
 40
 0.5
 50
-90.000000851989171
 51
 0
  0
LINE
  8
0
  6
CONTINUOUS
 62
     3
 10
 146.5128173828125
 20
-16.187156677246094
 11
 148.5128173828125
 21
-16.187156677246094
  0
ARC
  8
0
  6
CONTINUOUS
 62
     3
 10
 146.5128173828125
 20
-15.687156677246094
 40
 0.5
 50
-179.9999980615126
 51
-90.000000851989171
  0
LINE
  8
0
  6
CONTINUOUS
 62
     3
 10
 175.51283264160156
 20
-16.187156677246094
 11
 173.51283264160156
 21
-16.187156677246094
  0
ARC
  8
0
  6
CONTINUOUS
 62
     3
 10
 175.51283264160156
 20
-15.687156677246094
 40
 0.5
 50
-90.000000851989171
 51
 0
  0
LINE
  8
0
  6
CONTINUOUS
 62
     6
 10
 173.51283264160156
 20
-17.187156677246094
 11
 174.31283569335937
 21
-17.187156677246094
  0
LINE
  8
0
  6
CONTINUOUS
 62
     6
 10
 174.31283569335937
 20
-17.187156677246094
 11
 173.36282348632812
 21
-30.187152862548828
  0
LINE
  8
0
  6
CONTINUOUS
 62
     6
 10
 174.31283569335937
 20
-17.187156677246094
 11
 175.51283264160156
 21
-17.187156677246094
  0
LINE
  8
0
  6
CONTINUOUS
 62
     6
 10
 176.01283264160156
 20
-17.687105178833008
 11
 176.01283264160156
 21
-25.687105178833008
  0
ARC
  8
0
  6
CONTINUOUS
 62
     6
 10
 175.51283264160156
 20
-17.687105178833008
 40
 0.5
 50
-0.0000173028443202
 51
 89.999997209523428
  0
LINE
  8
0
  6
CONTINUOUS
 62
     6
 10
 175.51283264160156
 20
-26.187105178833008
 11
 173.75898742675781
 21
-26.187105178833008
  0
ARC
  8
0
  6
CONTINUOUS
 62
     6
 10
 175.51283264160156
 20
-25.687105178833008
 40
 0.5
 50
-90.000000851989171
 51
-0.0000173028443202
  0
LINE
  8
0
  6
CONTINUOUS
 62
     6
 10
-0.9102840423583984
 20
-17.187149047851563
 11
-1.7102870941162109
 21
-17.187149047851563
  0
LINE
  8
0
  6
CONTINUOUS
 62
     6
 10
-1.1564416885375977
 20
-26.187099456787109
 11
-0.9102840423583984
 21
-30.187149047851563
  0
LINE
  8
0
  6
DOT
 62
     6
 10
-1.7102870941162109
 20
-17.187149047851563
 11
-1.1564416885375977
 21
-26.187099456787109
  0
LINE
  8
0
  6
CONTINUOUS
 62
     6
 10
-1.7102870941162109
 20
-17.187149047851563
 11
-2.9102935791015625
 21
-17.187149047851563
  0
LINE
  8
0
  6
CONTINUOUS
 62
     6
 10
-3.4102935791015625
 20
-17.687097549438477
 11
-3.4102935791015625
 21
-25.687099456787109
  0
ARC
  8
0
  6
CONTINUOUS
 62
     6
 10
-2.9102935791015625
 20
-17.687097549438477
 40
 0.5
 50
 90.000004039712721
 51
-179.9999980615126
  0
LINE
  8
0
  6
CONTINUOUS
 62
     6
 10
-2.9102935791015625
 20
-26.187099456787109
 11
-1.1564388275146484
 21
-26.187099456787109
  0
ARC
  8
0
  6
CONTINUOUS
 62
     6
 10
-2.9102935791015625
 20
-25.687099456787109
 40
 0.5
 50
-179.9999980615126
 51
-90.000000851989171
  0
LINE
  8
0
  6
CONTINUOUS
 62
     6
 10
 24.08969783782959
 20
-17.187149047851563
 11
 24.88969898223877
 21
-17.187149047851563
  0
LINE
  8
0
  6
CONTINUOUS
 62
     6
 10
 24.335855484008789
 20
-26.187099456787109
 11
 24.08969783782959
 21
-30.187149047851563
  0
LINE
  8
0
  6
DOT
 62
     6
 10
 24.88969898223877
 20
-17.187149047851563
 11
 24.335855484008789
 21
-26.187099456787109
  0
LINE
  8
0
  6
CONTINUOUS
 62
     6
 10
 24.88969898223877
 20
-17.187149047851563
 11
 26.089706420898438
 21
-17.187149047851563
  0
LINE
  8
0
  6
CONTINUOUS
 62
     6
 10
 26.589706420898438
 20
-17.687097549438477
 11
 26.589706420898438
 21
-25.687099456787109
  0
ARC
  8
0
  6
CONTINUOUS
 62
     6
 10
 26.089706420898438
 20
-17.687097549438477
 40
 0.5
 50
-0.0000173028443202
 51
 89.999997209523428
  0
LINE
  8
0
  6
CONTINUOUS
 62
     6
 10
 26.089706420898438
 20
-26.187099456787109
 11
 24.335851669311523
 21
-26.187099456787109
  0
ARC
  8
0
  6
CONTINUOUS
 62
     6
 10
 26.089706420898438
 20
-25.687099456787109
 40
 0.5
 50
-90.000000851989171
 51
-0.0000173028443202
  0
LINE
  8
0
  6
DOT
 62
     6
 10
-56.583465576171875
 20
 41.512851715087891
 11
-56.583465576171875
 21
 40.312850952148438
  0
LINE
  8
0
  6
DOT
 62
     6
 10
-57.083465576171875
 20
 39.812850952148438
 11
-61.083473205566406
 21
 39.812850952148438
  0
ARC
  8
0
  6
DOT
 62
     6
 10
-57.083465576171875
 20
 40.312850952148438
 40
 0.5
 50
-90.000000851989171
 51
 0
  0
ARC
  8
0
  6
CONTINUOUS
 62
     6
 10
-61.083473205566406
 20
 40.312850952148438
 40
 0.5
 50
-179.9999980615126
 51
-90.000000851989171
  0
LINE
  8
0
  6
CONTINUOUS
 62
     6
 10
-61.583473205566406
 20
 40.312850952148438
 11
-61.583473205566406
 21
 41.512851715087891
  0
LINE
  8
0
  6
CONTINUOUS
 62
     6
 10
-69.083457946777344
 20
 67.312835693359375
 11
-69.083457946777344
 21
 68.112838745117188
  0
LINE
  8
0
  6
CONTINUOUS
 62
     6
 10
-69.083457946777344
 20
 68.112838745117188
 11
-61.38348388671875
 21
 68.112838745117188
  0
LINE
  8
0
  6
DOT
 62
     6
 10
-61.38348388671875
 20
 68.112838745117188
 11
-56.583465576171875
 21
 68.112838745117188
  0
LINE
  8
0
  6
DOT
 62
     6
 10
-56.583465576171875
 20
 68.112838745117188
 11
-56.583465576171875
 21
 67.312835693359375
  0
LINE
  8
0
  6
DOT
 62
     6
 10
-56.583465576171875
 20
 68.112838745117188
 11
-56.583465576171875
 21
 69.312835693359375
  0
LINE
  8
0
  6
DOT
 62
     6
 10
-57.083465576171875
 20
 69.812835693359375
 11
-61.083473205566406
 21
 69.812835693359375
  0
ARC
  8
0
  6
DOT
 62
     6
 10
-57.083465576171875
 20
 69.312835693359375
 40
 0.5
 50
 0
 51
 89.999997209523428
  0
ARC
  8
0
  6
CONTINUOUS
 62
     6
 10
-61.083473205566406
 20
 69.312835693359375
 40
 0.5
 50
 89.999997209523428
 51
 179.99999441904686
  0
LINE
  8
0
  6
CONTINUOUS
 62
     6
 10
-61.583473205566406
 20
 69.312835693359375
 11
-61.583473205566406
 21
 68.112838745117188
  0
LINE
  8
0
  6
CONTINUOUS
 62
     6
 10
-167.25662231445312
 20
-17.187149047851563
 11
-168.05662536621094
 21
-17.187149047851563
  0
LINE
  8
0
  6
CONTINUOUS
 62
     6
 10
-168.05662536621094
 20
-17.187149047851563
 11
-167.25662231445312
 21
-30.187149047851563
  0
LINE
  8
0
  6
CONTINUOUS
 62
     6
 10
-168.05662536621094
 20
-17.187149047851563
 11
-169.25663757324219
 21
-17.187149047851563
  0
LINE
  8
0
  6
CONTINUOUS
 62
     6
 10
-169.75663757324219
 20
-17.687097549438477
 11
-169.75663757324219
 21
-25.687099456787109
  0
ARC
  8
0
  6
CONTINUOUS
 62
     6
 10
-169.25663757324219
 20
-17.687097549438477
 40
 0.5
 50
 90.000004039712721
 51
-179.9999980615126
  0
LINE
  8
0
  6
CONTINUOUS
 62
     6
 10
-169.25663757324219
 20
-26.187099456787109
 11
-167.50277709960937
 21
-26.187099456787109
  0
ARC
  8
0
  6
CONTINUOUS
 62
     6
 10
-169.25663757324219
 20
-25.687099456787109
 40
 0.5
 50
-179.9999980615126
 51
-90.000000851989171
  0
LINE
  8
0
  6
CONTINUOUS
 62
     6
 10
-142.25663757324219
 20
-17.187149047851563
 11
-141.45663452148437
 21
-17.187149047851563
  0
LINE
  8
0
  6
CONTINUOUS
 62
     6
 10
-141.45663452148437
 20
-17.187149047851563
 11
-142.25663757324219
 21
-30.187149047851563
  0
LINE
  8
0
  6
CONTINUOUS
 62
     6
 10
-141.45663452148437
 20
-17.187149047851563
 11
-140.25663757324219
 21
-17.187149047851563
  0
LINE
  8
0
  6
CONTINUOUS
 62
     6
 10
-139.75663757324219
 20
-17.687097549438477
 11
-139.75663757324219
 21
-25.687099456787109
  0
ARC
  8
0
  6
CONTINUOUS
 62
     6
 10
-140.25663757324219
 20
-17.687097549438477
 40
 0.5
 50
-0.0000173028443202
 51
 89.999997209523428
  0
LINE
  8
0
  6
CONTINUOUS
 62
     6
 10
-140.25663757324219
 20
-26.187099456787109
 11
-142.01048278808594
 21
-26.187099456787109
  0
ARC
  8
0
  6
CONTINUOUS
 62
     6
 10
-140.25663757324219
 20
-25.687099456787109
 40
 0.5
 50
-90.000000851989171
 51
-0.0000173028443202
  0
ARC
  8
0
  6
DIVIDE
 62
     6
 10
 108.5128173828125
 20
 127.81283569335938
 40
 5
 50
 0
 51
 90.000004039712721
  0
LINE
  8
0
  6
DIVIDE
 62
     6
 10
 108.5128173828125
 20
 132.81282806396484
 11
 93.512825012207031
 21
 132.81282806396484
  0
ARC
  8
0
  6
DIVIDE
 62
     6
 10
 93.512825012207031
 20
 127.81283569335938
 40
 5
 50
 90.000004039712721
 51
-179.9999980615126
  0
LINE
  8
256
  6
CONTINUOUS
 62
     7
 10
 104.99998474121094
 20
-121.5
 11
 200
 21
-121.5
  0
LINE
  8
256
  6
CONTINUOUS
 62
     7
 10
 170.99998474121094
 20
-109.5
 11
 170.99998474121094
 21
-121.5
  0
TEXT
  8
256
  6
CONTINUOUS
 62
     7
 10
 112.5
 20
-134.25
 11
 142.5
 21
-134.25
 40
 6
 41
 1
  1
ＳＱ－ＨＮ
 50
 0
 72
  5
  0
TEXT
  8
256
  6
CONTINUOUS
 62
     7
 10
 125.99998474121094
 20
-119.75
 11
 149.99998474121094
 21
-119.75
 40
 5
 41
 0.8
  1
保護キャップ
 50
 0
 72
  5
  0
TEXT
  8
256
  6
CONTINUOUS
 62
     7
 10
 106.29998779296875
 20
-112.4499633789062
 11
 111.29998779296875
 21
-112.4499633789062
 40
 2.5
 41
 0.8
  1
品名
 50
 0
 72
  5
  0
TEXT
  8
256
  6
CONTINUOUS
 62
     7
 10
 106.29998779296875
 20
-124.45003051757811
 11
 111.29998779296875
 21
-124.45003051757811
 40
 2.5
 41
 0.8
  1
品番
 50
 0
 72
  5
  0
LINE
  8
256
  6
CONTINUOUS
 62
     7
 10
 104.99998474121094
 20
-139.5
 11
 104.99998474121094
 21
-109.5
  0
LINE
  8
256
  6
CONTINUOUS
 62
     7
 10
 104.99998474121094
 20
-109.5
 11
 200
 21
-109.5
  0
LINE
  8
256
  6
CONTINUOUS
 62
     7
 10
-193.30000000000001
 20
 124.99999645625348
 11
-93.300000000000011
 21
 124.99999645625348
  0
LINE
  8
256
  6
CONTINUOUS
 62
     7
 10
-93.300000000000011
 20
 124.9999964562535
 11
-93.300000000000011
 21
 136.99999721136808
  0
TEXT
  8
256
  6
CONTINUOUS
 62
     7
 10
-188.30000000000001
 20
 127.99999604817611
 11
-140.30000000000001
 21
 127.99999604817611
 40
 6
 41
 1
  1
ＬＢ－Ｄ９９１０
 50
 0
 72
  5
  0
LINE
  8
256
  6
CONTINUOUS
 62
     7
 10
 200
 20
-139.5
 11
-193.30000000000001
 21
-139.49999999999994
  0
LINE
  8
256
  6
CONTINUOUS
 62
     7
 10
 200
 20
 136.99999721136808
 11
 200
 21
-139.5
  0
LINE
  8
256
  6
CONTINUOUS
 62
     7
 10
-193.30000000000001
 20
 136.99999721136808
 11
-193.30000000000001
 21
-139.49999999999994
  0
LINE
  8
256
  6
CONTINUOUS
 62
     7
 10
-193.30000000000001
 20
 136.99999721136808
 11
 200
 21
 136.99999721136808
  0
LINE
  8
0
  6
CONTINUOUS
 62
     7
 10
-41.583457946777344
 20
-3.1871514320373535
 11
-41.583457946777344
 21
 25.772850036621094
  0
LINE
  8
0
  6
CONTINUOUS
 62
     7
 10
-84.098014831542969
 20
-0.5888822078704834
 11
-84.098014831542969
 21
 25.772850036621094
  0
LINE
  8
0
  6
CONTINUOUS
 62
     7
 10
-41.583457946777344
 20
 24.812850952148438
 11
-84.098014831542969
 21
 24.812850952148438
  0
LINE
  8
0
  6
CONTINUOUS
 62
     7
 10
-41.583457946777344
 20
 24.812850952148438
 11
-44.481235425644549
 21
 25.589308087456001
  0
LINE
  8
0
  6
CONTINUOUS
 62
     7
 10
-41.583457946777344
 20
 24.812850952148438
 11
-44.481235425644549
 21
 24.036393816840874
  0
LINE
  8
0
  6
CONTINUOUS
 62
     7
 10
-84.098014831542969
 20
 24.812850952148438
 11
-81.200237352675771
 21
 24.036393816840874
  0
LINE
  8
0
  6
CONTINUOUS
 62
     7
 10
-84.098014831542969
 20
 24.812850952148438
 11
-81.200237352675771
 21
 25.589308087456001
  0
TEXT
  8
0
  6
CONTINUOUS
 62
     7
 10
-66.79073791503906
 20
 25.772850036621094
 11
-58.890737915039061
 21
 25.772850036621094
 40
 2
 41
 0.8
  1
42.5
 50
 0
 72
  5
  0
LINE
  8
0
  6
CONTINUOUS
 62
     7
 10
-46.583454132080078
 20
-2.1721429824829102
 11
-46.583454132080078
 21
 20.772850036621094
  0
LINE
  8
0
  6
CONTINUOUS
 62
     7
 10
-46.583454132080078
 20
 19.81285285949707
 11
-84.098014831542969
 21
 19.81285285949707
  0
LINE
  8
0
  6
CONTINUOUS
 62
     7
 10
-46.583454132080078
 20
 19.81285285949707
 11
-49.481231610947283
 21
 20.589309994804633
  0
LINE
  8
0
  6
CONTINUOUS
 62
     7
 10
-46.583454132080078
 20
 19.81285285949707
 11
-49.481231610947283
 21
 19.036395724189507
  0
LINE
  8
0
  6
CONTINUOUS
 62
     7
 10
-84.098014831542969
 20
 19.81285285949707
 11
-81.200237352675771
 21
 19.036395724189507
  0
LINE
  8
0
  6
CONTINUOUS
 62
     7
 10
-84.098014831542969
 20
 19.81285285949707
 11
-81.200237352675771
 21
 20.589309994804633
  0
TEXT
  8
0
  6
CONTINUOUS
 62
     7
 10
-69.29073791503906
 20
 20.772850036621094
 11
-61.390737915039061
 21
 20.772850036621094
 40
 2
 41
 0.8
  1
37.5
 50
 0
 72
  5
  0
LINE
  8
0
  6
CONTINUOUS
 62
     7
 10
-40.054595947265625
 20
-5.1871500015258789
 11
-20.623456954956055
 21
-5.1871500015258789
  0
LINE
  8
0
  6
CONTINUOUS
 62
     7
 10
-21.583457946777344
 20
-42.187149047851563
 11
-21.583457946777344
 21
-5.1871500015258789
  0
LINE
  8
0
  6
CONTINUOUS
 62
     7
 10
-21.583457946777344
 20
-42.187149047851563
 11
-20.807000811469781
 21
-39.289371568984357
  0
LINE
  8
0
  6
CONTINUOUS
 62
     7
 10
-21.583457946777344
 20
-42.187149047851563
 11
-22.359915082084907
 21
-39.289371568984357
  0
LINE
  8
0
  6
CONTINUOUS
 62
     7
 10
-21.583457946777344
 20
-5.1871500015258789
 11
-22.359915082084907
 21
-8.084927480393084
  0
LINE
  8
0
  6
CONTINUOUS
 62
     7
 10
-21.583457946777344
 20
-5.1871500015258789
 11
-20.807000811469781
 21
-8.084927480393084
  0
TEXT
  8
0
  6
CONTINUOUS
 62
     7
 10
-22.543456996280892
 20
-25.537152055897984
 11
-22.54345715801303
 21
-21.837152055897988
 40
 2
 41
 0.8
  1
37
 50
 90.000004039712721
 72
  5
  0
LINE
  8
0
  6
CONTINUOUS
 62
     7
 10
-88.323814392089844
 20
-5.1871500015258789
 11
-100.04344940185547
 21
-5.1871500015258789
  0
LINE
  8
0
  6
CONTINUOUS
 62
     7
 10
-99.083457946777344
 20
-5.1871500015258789
 11
-99.083457946777344
 21
-42.187149047851563
  0
LINE
  8
0
  6
CONTINUOUS
 62
     7
 10
-99.083457946777344
 20
-5.1871500015258789
 11
-99.85991508208491
 21
-8.084927480393084
  0
LINE
  8
0
  6
CONTINUOUS
 62
     7
 10
-99.083457946777344
 20
-5.1871500015258789
 11
-98.307000811469777
 21
-8.084927480393084
  0
LINE
  8
0
  6
CONTINUOUS
 62
     7
 10
-99.083457946777344
 20
-42.187149047851563
 11
-98.307000811469777
 21
-39.289371568984357
  0
LINE
  8
0
  6
CONTINUOUS
 62
     7
 10
-99.083457946777344
 20
-42.187149047851563
 11
-99.85991508208491
 21
-39.289371568984357
  0
TEXT
  8
0
  6
CONTINUOUS
 62
     7
 10
-100.04344936688635
 20
-25.53715205589798
 11
-100.0434495286185
 21
-21.837152055897981
 40
 2
 41
 0.8
  1
37
 50
 90.000004039712721
 72
  5
  0
LINE
  8
0
  6
CONTINUOUS
 62
     7
 10
 126.01286315917969
 20
 0.6507189273834229
 11
 126.01286315917969
 21
 5.8728475570678711
  0
LINE
  8
0
  6
CONTINUOUS
 62
     7
 10
 111.01284790039062
 20
 1.7164266109466553
 11
 111.01284790039062
 21
 5.8728475570678711
  0
LINE
  8
0
  6
CONTINUOUS
 62
     7
 10
 126.01286315917969
 20
 4.9128447771072388
 11
 111.01284790039062
 21
 4.9128447771072388
  0
LINE
  8
0
  6
CONTINUOUS
 62
     7
 10
 126.01286315917969
 20
 4.9128447771072388
 11
 123.11508568031249
 21
 5.689301912414801
  0
LINE
  8
0
  6
CONTINUOUS
 62
     7
 10
 126.01286315917969
 20
 4.9128447771072388
 11
 123.11508568031249
 21
 4.1363876417996766
  0
LINE
  8
0
  6
CONTINUOUS
 62
     7
 10
 111.01284790039062
 20
 4.9128447771072388
 11
 113.91062537925782
 21
 4.1363876417996766
  0
LINE
  8
0
  6
CONTINUOUS
 62
     7
 10
 111.01284790039062
 20
 4.9128447771072388
 11
 113.91062537925782
 21
 5.689301912414801
  0
TEXT
  8
0
  6
CONTINUOUS
 62
     7
 10
 116.66286010742188
 20
 5.8728468418121338
 11
 120.36286010742188
 21
 5.8728468418121338
 40
 2
 41
 0.8
  1
15
 50
 0
 72
  5
  0
LINE
  8
0
  6
CONTINUOUS
 62
     7
 10
 91.0128173828125
 20
 1.5417768955230713
 11
 91.0128173828125
 21
 5.8728475570678711
  0
LINE
  8
0
  6
CONTINUOUS
 62
     7
 10
 91.0128173828125
 20
 4.9128447771072388
 11
 111.01284790039062
 21
 4.9128447771072388
  0
LINE
  8
0
  6
CONTINUOUS
 62
     7
 10
 91.0128173828125
 20
 4.9128447771072388
 11
 93.910594861679698
 21
 4.1363876417996766
  0
LINE
  8
0
  6
CONTINUOUS
 62
     7
 10
 91.0128173828125
 20
 4.9128447771072388
 11
 93.910594861679698
 21
 5.689301912414801
  0
LINE
  8
0
  6
CONTINUOUS
 62
     7
 10
 111.01284790039062
 20
 4.9128447771072388
 11
 108.11507042152343
 21
 5.689301912414801
  0
LINE
  8
0
  6
CONTINUOUS
 62
     7
 10
 111.01284790039062
 20
 4.9128447771072388
 11
 108.11507042152343
 21
 4.1363876417996766
  0
TEXT
  8
0
  6
CONTINUOUS
 62
     7
 10
 99.162829589843753
 20
 5.8728468418121338
 11
 102.86282958984376
 21
 5.8728468418121338
 40
 2
 41
 0.8
  1
20
 50
 0
 72
  5
  0
LINE
  8
0
  6
CONTINUOUS
 62
     7
 10
-66.583457946777344
 20
-4.2240972518920898
 11
-66.583457946777344
 21
 15.772852897644043
  0
LINE
  8
0
  6
CONTINUOUS
 62
     7
 10
-66.583457946777344
 20
 14.812853813171387
 11
-84.098014831542969
 21
 14.812853813171387
  0
LINE
  8
0
  6
CONTINUOUS
 62
     7
 10
-66.583457946777344
 20
 14.812853813171387
 11
-69.481235425644542
 21
 15.58931094847895
  0
LINE
  8
0
  6
CONTINUOUS
 62
     7
 10
-66.583457946777344
 20
 14.812853813171387
 11
-69.481235425644542
 21
 14.036396677863824
  0
LINE
  8
0
  6
CONTINUOUS
 62
     7
 10
-84.098014831542969
 20
 14.812853813171387
 11
-81.200237352675771
 21
 14.036396677863824
  0
LINE
  8
0
  6
CONTINUOUS
 62
     7
 10
-84.098014831542969
 20
 14.812853813171387
 11
-81.200237352675771
 21
 15.58931094847895
  0
TEXT
  8
0
  6
CONTINUOUS
 62
     7
 10
-79.29073791503906
 20
 15.772852897644043
 11
-71.390737915039054
 21
 15.772852897644043
 40
 2
 41
 0.8
  1
17.5
 50
 0
 72
  5
  0
LINE
  8
0
  6
CONTINUOUS
 62
     7
 10
-66.583457946777344
 20
 14.812853813171387
 11
-46.583454132080078
 21
 14.812853813171387
  0
LINE
  8
0
  6
CONTINUOUS
 62
     7
 10
-66.583457946777344
 20
 14.812853813171387
 11
-63.685680467910139
 21
 14.036396677863824
  0
LINE
  8
0
  6
CONTINUOUS
 62
     7
 10
-66.583457946777344
 20
 14.812853813171387
 11
-63.685680467910139
 21
 15.58931094847895
  0
LINE
  8
0
  6
CONTINUOUS
 62
     7
 10
-46.583454132080078
 20
 14.812853813171387
 11
-49.481231610947283
 21
 15.58931094847895
  0
LINE
  8
0
  6
CONTINUOUS
 62
     7
 10
-46.583454132080078
 20
 14.812853813171387
 11
-49.481231610947283
 21
 14.036396677863824
  0
TEXT
  8
0
  6
CONTINUOUS
 62
     7
 10
-58.433453369140622
 20
 15.772852897644043
 11
-54.733453369140619
 21
 15.772852897644043
 40
 2
 41
 0.8
  1
20
 50
 0
 72
  5
  0
LINE
  8
0
  6
CONTINUOUS
 62
     7
 10
-41.583457946777344
 20
 19.812850952148437
 11
-46.583454132080078
 21
 19.812850952148437
  0
LINE
  8
0
  6
CONTINUOUS
 62
     7
 10
-41.583457946777344
 20
 19.812850952148437
 11
-44.481235425644549
 21
 20.589308087456001
  0
LINE
  8
0
  6
CONTINUOUS
 62
     7
 10
-41.583457946777344
 20
 19.812850952148437
 11
-44.481235425644549
 21
 19.036393816840874
  0
LINE
  8
0
  6
CONTINUOUS
 62
     7
 10
-46.583454132080078
 20
 19.812850952148437
 11
-43.685676653212873
 21
 19.036393816840874
  0
LINE
  8
0
  6
CONTINUOUS
 62
     7
 10
-46.583454132080078
 20
 19.812850952148437
 11
-43.685676653212873
 21
 20.589308087456001
  0
TEXT
  8
0
  6
CONTINUOUS
 62
     7
 10
-44.883457946777341
 20
 20.772850036621094
 11
-43.283457946777339
 21
 20.772850036621094
 40
 2
 41
 0.8
  1
5
 50
 0
 72
  5
  0
LINE
  8
0
  6
CONTINUOUS
 62
     7
 10
-140.98927307128906
 20
-42.1871337890625
 11
-121.22930908203125
 21
-42.1871337890625
  0
LINE
  8
0
  6
CONTINUOUS
 62
     7
 10
-138.80169677734375
 20
-5.1871500015258789
 11
-121.22930908203125
 21
-5.1871500015258789
  0
LINE
  8
0
  6
CONTINUOUS
 62
     7
 10
-122.18931579589844
 20
-5.1871500015258789
 11
-122.18931579589844
 21
-42.1871337890625
  0
LINE
  8
0
  6
CONTINUOUS
 62
     7
 10
-122.18931579589844
 20
-5.1871500015258789
 11
-122.965772931206
 21
-8.084927480393084
  0
LINE
  8
0
  6
CONTINUOUS
 62
     7
 10
-122.18931579589844
 20
-5.1871500015258789
 11
-121.41285866059087
 21
-8.084927480393084
  0
LINE
  8
0
  6
CONTINUOUS
 62
     7
 10
-122.18931579589844
 20
-42.1871337890625
 11
-121.41285866059087
 21
-39.289356310195295
  0
LINE
  8
0
  6
CONTINUOUS
 62
     7
 10
-122.18931579589844
 20
-42.1871337890625
 11
-122.965772931206
 21
-39.289356310195295
  0
TEXT
  8
0
  6
CONTINUOUS
 62
     7
 10
-123.14932247479651
 20
-25.537146333852082
 11
-123.14932263652865
 21
-21.837146333852083
 40
 2
 41
 0.8
  1
37
 50
 90.000004039712721
 72
  5
  0
LINE
  8
0
  6
CONTINUOUS
 62
     7
 10
-39.114921569824219
 20
 39.812850952148438
 11
-20.623456954956055
 21
 39.812850952148438
  0
LINE
  8
0
  6
CONTINUOUS
 62
     7
 10
-39.212562561035156
 20
 69.812858581542969
 11
-20.623456954956055
 21
 69.812858581542969
  0
LINE
  8
0
  6
CONTINUOUS
 62
     7
 10
-21.583457946777344
 20
 39.812850952148438
 11
-21.583457946777344
 21
 69.812858581542969
  0
LINE
  8
0
  6
CONTINUOUS
 62
     7
 10
-21.583457946777344
 20
 39.812850952148438
 11
-20.807000811469781
 21
 42.710628431015643
  0
LINE
  8
0
  6
CONTINUOUS
 62
     7
 10
-21.583457946777344
 20
 39.812850952148438
 11
-22.359915082084907
 21
 42.710628431015643
  0
LINE
  8
0
  6
CONTINUOUS
 62
     7
 10
-21.583457946777344
 20
 69.812858581542969
 11
-22.359915082084907
 21
 66.915081102675771
  0
LINE
  8
0
  6
CONTINUOUS
 62
     7
 10
-21.583457946777344
 20
 69.812858581542969
 11
-20.807000811469781
 21
 66.915081102675771
  0
TEXT
  8
0
  6
CONTINUOUS
 62
     7
 10
-22.543456996280892
 20
 52.96285557349654
 11
-22.54345715801303
 21
 56.662855573496543
 40
 2
 41
 0.8
  1
30
 50
 90.000004039712721
 72
  5
  0
LINE
  8
0
  6
CONTINUOUS
 62
     7
 10
-88.034980773925781
 20
 62.312850952148438
 11
-102.54347229003906
 21
 62.312850952148438
  0
LINE
  8
0
  6
CONTINUOUS
 62
     7
 10
-88.034980773925781
 20
 47.312850952148438
 11
-102.54347229003906
 21
 47.312850952148438
  0
LINE
  8
0
  6
CONTINUOUS
 62
     7
 10
-101.58345794677734
 20
 62.312850952148438
 11
-101.58345794677734
 21
 47.312850952148438
  0
LINE
  8
0
  6
CONTINUOUS
 62
     7
 10
-101.58345794677734
 20
 62.312850952148438
 11
-102.35991508208491
 21
 59.415073473281232
  0
LINE
  8
0
  6
CONTINUOUS
 62
     7
 10
-101.58345794677734
 20
 62.312850952148438
 11
-100.80700081146978
 21
 59.415073473281232
  0
LINE
  8
0
  6
CONTINUOUS
 62
     7
 10
-101.58345794677734
 20
 47.312850952148438
 11
-100.80700081146978
 21
 50.210628431015643
  0
LINE
  8
0
  6
CONTINUOUS
 62
     7
 10
-101.58345794677734
 20
 47.312850952148438
 11
-102.35991508208491
 21
 50.210628431015643
  0
TEXT
  8
0
  6
CONTINUOUS
 62
     7
 10
-102.54345699628088
 20
 52.962855573496547
 11
-102.54345715801303
 21
 56.66285557349655
 40
 2
 41
 0.8
  1
15
 50
 90.000004039712721
 72
  5
  0
LINE
  8
0
  6
CONTINUOUS
 62
     7
 10
-81.977241516113281
 20
 67.312858581542969
 11
-107.77870178222656
 21
 67.312858581542969
  0
LINE
  8
0
  6
CONTINUOUS
 62
     7
 10
-81.977241516113281
 20
 42.312854766845703
 11
-107.77870178222656
 21
 42.312854766845703
  0
LINE
  8
0
  6
CONTINUOUS
 62
     7
 10
-106.81871032714844
 20
 67.312858581542969
 11
-106.81871032714844
 21
 42.312854766845703
  0
LINE
  8
0
  6
CONTINUOUS
 62
     7
 10
-106.81871032714844
 20
 67.312858581542969
 11
-107.595167462456
 21
 64.415081102675771
  0
LINE
  8
0
  6
CONTINUOUS
 62
     7
 10
-106.81871032714844
 20
 67.312858581542969
 11
-106.04225319184087
 21
 64.415081102675771
  0
LINE
  8
0
  6
CONTINUOUS
 62
     7
 10
-106.81871032714844
 20
 42.312854766845703
 11
-106.04225319184087
 21
 45.210632245712908
  0
LINE
  8
0
  6
CONTINUOUS
 62
     7
 10
-106.81871032714844
 20
 42.312854766845703
 11
-107.595167462456
 21
 45.210632245712908
  0
TEXT
  8
0
  6
CONTINUOUS
 62
     7
 10
-107.77870174725744
 20
 52.962855573496547
 11
-107.77870190898959
 21
 56.66285557349655
 40
 2
 41
 0.8
  1
25
 50
 90.000004039712721
 72
  5
  0
LINE
  8
0
  6
CONTINUOUS
 62
     7
 10
-0.9102945327758789
 20
-43.664192199707031
 11
-0.9102945327758789
 21
-53.647151947021484
  0
LINE
  8
0
  6
CONTINUOUS
 62
     7
 10
 24.08970832824707
 20
-43.664192199707031
 11
 24.08970832824707
 21
-53.647151947021484
  0
LINE
  8
0
  6
CONTINUOUS
 62
     7
 10
-0.9102945327758789
 20
-52.687152862548828
 11
 24.08970832824707
 21
-52.687152862548828
  0
LINE
  8
0
  6
CONTINUOUS
 62
     7
 10
-0.9102945327758789
 20
-52.687152862548828
 11
 1.9874829460913261
 21
-53.463609997856388
  0
LINE
  8
0
  6
CONTINUOUS
 62
     7
 10
-0.9102945327758789
 20
-52.687152862548828
 11
 1.9874829460913261
 21
-51.910695727241269
  0
LINE
  8
0
  6
CONTINUOUS
 62
     7
 10
 24.08970832824707
 20
-52.687152862548828
 11
 21.191930849379865
 21
-51.910695727241269
  0
LINE
  8
0
  6
CONTINUOUS
 62
     7
 10
 24.08970832824707
 20
-52.687152862548828
 11
 21.191930849379865
 21
-53.463609997856388
  0
TEXT
  8
0
  6
CONTINUOUS
 62
     7
 10
 9.7397069454193108
 20
-51.727157592773438
 11
 13.43970694541931
 21
-51.727157592773438
 40
 2
 41
 0.8
  1
25
 50
 0
 72
  5
  0
LINE
  8
0
  6
CONTINUOUS
 62
     7
 10
-3.4103050231933594
 20
-3.1871514320373535
 11
-3.4103050231933594
 21
 15.772850036621094
  0
LINE
  8
0
  6
CONTINUOUS
 62
     7
 10
 26.589706420898438
 20
-3.1871514320373535
 11
 26.589706420898438
 21
 15.772850036621094
  0
LINE
  8
0
  6
CONTINUOUS
 62
     7
 10
-3.4103050231933594
 20
 14.812849998474121
 11
 26.589706420898438
 21
 14.812849998474121
  0
LINE
  8
0
  6
CONTINUOUS
 62
     7
 10
-3.4103050231933594
 20
 14.812849998474121
 11
-0.5125275443261543
 21
 14.036392863166558
  0
LINE
  8
0
  6
CONTINUOUS
 62
     7
 10
-3.4103050231933594
 20
 14.812849998474121
 11
-0.5125275443261543
 21
 15.589307133781684
  0
LINE
  8
0
  6
CONTINUOUS
 62
     7
 10
 26.589706420898438
 20
 14.812849998474121
 11
 23.691928942031232
 21
 15.589307133781684
  0
LINE
  8
0
  6
CONTINUOUS
 62
     7
 10
 26.589706420898438
 20
 14.812849998474121
 11
 23.691928942031232
 21
 14.036392863166558
  0
TEXT
  8
0
  6
CONTINUOUS
 62
     7
 10
 9.7397007465362542
 20
 15.772849082946777
 11
 13.439700746536253
 21
 15.772849082946777
 40
 2
 41
 0.8
  1
30
 50
 0
 72
  5
  0
LINE
  8
0
  6
CONTINUOUS
 62
     7
 10
-0.9102945327758789
 20
-0.9262614250183106
 11
-0.9102945327758789
 21
 10.772849559783936
  0
LINE
  8
0
  6
CONTINUOUS
 62
     7
 10
 24.08970832824707
 20
-0.9262614250183106
 11
 24.08970832824707
 21
 10.772849559783936
  0
LINE
  8
0
  6
CONTINUOUS
 62
     7
 10
-0.9102945327758789
 20
 9.8128471374511719
 11
 24.08970832824707
 21
 9.8128471374511719
  0
LINE
  8
0
  6
CONTINUOUS
 62
     7
 10
-0.9102945327758789
 20
 9.8128471374511719
 11
 1.9874829460913261
 21
 9.0363900021436088
  0
LINE
  8
0
  6
CONTINUOUS
 62
     7
 10
-0.9102945327758789
 20
 9.8128471374511719
 11
 1.9874829460913261
 21
 10.589304272758735
  0
LINE
  8
0
  6
CONTINUOUS
 62
     7
 10
 24.08970832824707
 20
 9.8128471374511719
 11
 21.191930849379865
 21
 10.589304272758735
  0
LINE
  8
0
  6
CONTINUOUS
 62
     7
 10
 24.08970832824707
 20
 9.8128471374511719
 11
 21.191930849379865
 21
 9.0363900021436088
  0
TEXT
  8
0
  6
CONTINUOUS
 62
     7
 10
 9.7397069454193108
 20
 10.772849082946777
 11
 13.43970694541931
 21
 10.772849082946777
 40
 2
 41
 0.8
  1
25
 50
 0
 72
  5
  0
LINE
  8
0
  6
CONTINUOUS
 62
     7
 10
 116.69229888916016
 20
 132.81282806396484
 11
 129.47279357910156
 21
 132.81282806396484
  0
LINE
  8
0
  6
CONTINUOUS
 62
     7
 10
 128.51280212402344
 20
 132.81282806396484
 11
 128.51280212402344
 21
 64.812847137451172
  0
LINE
  8
0
  6
CONTINUOUS
 62
     7
 10
 128.51280212402344
 20
 132.81282806396484
 11
 127.73634498871587
 21
 129.91505058509765
  0
LINE
  8
0
  6
CONTINUOUS
 62
     7
 10
 128.51280212402344
 20
 132.81282806396484
 11
 129.289259259331
 21
 129.91505058509765
  0
LINE
  8
0
  6
CONTINUOUS
 62
     7
 10
 128.51280212402344
 20
 64.812847137451172
 11
 129.289259259331
 21
 67.71062461631837
  0
LINE
  8
0
  6
CONTINUOUS
 62
     7
 10
 128.51280212402344
 20
 64.812847137451172
 11
 127.73634498871587
 21
 67.71062461631837
  0
TEXT
  8
0
  6
CONTINUOUS
 62
     7
 10
 127.5528030745199
 20
 96.962840314707478
 11
 127.55280291278775
 21
 100.66284031470745
 40
 2
 41
 0.8
  1
68
 50
 90.000004039712721
 72
  5
  0
ENDSEC
  0
EOF
