  0
SECTION
  2
HEADER
  9
$INSBASE
 10
0.0
20
0.0
  9
$REGENMODE
 70
     1
  9
$DRAGMODE
 70
     1
  9
$DIMTAD
 70
     1
  9
$EXTMIN
 10
-210.000000
 20
-148.500000
 30
 0.0
  9
$EXTMAX
 10
210.000000
 20
148.500000
 30
 0.0
  9
$LUPREC
 70
    3
  9
$AUPREC
 70
    3
  9
$LTSCALE
 40
26.250000
  0
ENDSEC
  0
SECTION
  2
TABLES
  0
TABLE
  2
LTYPE
 70
     6
  0
LTYPE
  2
CONTINUOUS
 70
    64
  3
SOLID
 72
    65
 73
     0
 40
0.0
  0
LTYPE
  2
DASHED2
 70
    64
  3
_ _ _ _ _ _ _ _ _ _ _ _ _ _ _ _ _ _ _ _ _ _ 
 72
    65
 73
     2
 40
0.5
 49
0.25
 49
-0.25
  0
LTYPE
  2
DASHED
 70
    64
  3
__ __ __ __ __ __ __ __ __ __ __ __ __ __ __
 72
    65
 73
     2
 40
0.75
 49
0.5
 49
-0.25
  0
LTYPE
  2
DASHEDX2
 70
    64
  3
____  ____  ____  ____  ____  ____  ____  __
 72
    65
 73
     2
 40
1.5
 49
1.0
 49
-0.5
  0
LTYPE
  2
DOT
 70
    64
  3
............................................
 72
    65
 73
     2
 40
0.25
 49
0
 49
-0.25
  0
LTYPE
  2
DASHDOT
 70
    64
  3
__ . __ . __ . __ . __ . __ . __ . __ . __ .
 72
    65
 73
     4
 40
1.0
 49
0.5
 49
-0.25
 49
0.0
 49
-0.25
  0
LTYPE
  2
CENTER
 70
    64
  3
____ _ ____ _ ____ _ ____ _ ____ _ ____ _ __
 72
    65
 73
     4
 40
2.0
 49
1.25
 49
-0.25
 49
0.25
 49
-0.25
  0
LTYPE
  2
DIVIDE
 70
    64
  3
__ . . __ . . __ . . __ . . __ . . __ . . __
 72
    65
 73
     6
 40
1.25
 49
0.5
 49
-0.25
 49
0.0
 49
-0.25
 49
0.0
 49
-0.25
  0
LTYPE
  2
PHANTOM2
 70
    64
  3
___ _ _ ___ _ _ ___ _ _ ___ _ _ ___ _ _ ___ 
 72
    65
 73
     6
 40
1.25
 49
0.625
 49
-0.125
 49
0.125
 49
-0.125
 49
0.125
 49
-0.125
  0
LTYPE
  2
DOTX2
 70
    64
  3
. . . . . . . . . . . . . . . . . . . . . . 
 72
    65
 73
     2
 40
0.5
 49
0
 49
-0.5
  0
ENDTAB
  0
TABLE
  2
LAYER
 70
   255
  0
LAYER
  2
0
 70
    64
 62
     7
  6
CONTINUOUS
  0
LAYER
  2
1
 70
    64
 62
     7
  6
CONTINUOUS
  0
LAYER
  2
2
 70
    64
 62
     7
  6
CONTINUOUS
  0
LAYER
  2
3
 70
    64
 62
     7
  6
CONTINUOUS
  0
LAYER
  2
4
 70
    64
 62
     7
  6
CONTINUOUS
  0
LAYER
  2
5
 70
    64
 62
     7
  6
CONTINUOUS
  0
LAYER
  2
6
 70
    64
 62
     7
  6
CONTINUOUS
  0
LAYER
  2
7
 70
    64
 62
     7
  6
CONTINUOUS
  0
LAYER
  2
8
 70
    64
 62
     7
  6
CONTINUOUS
  0
LAYER
  2
9
 70
    64
 62
     7
  6
CONTINUOUS
  0
LAYER
  2
10
 70
    64
 62
     7
  6
CONTINUOUS
  0
LAYER
  2
11
 70
    64
 62
     7
  6
CONTINUOUS
  0
LAYER
  2
12
 70
    64
 62
     7
  6
CONTINUOUS
  0
LAYER
  2
13
 70
    64
 62
     7
  6
CONTINUOUS
  0
LAYER
  2
14
 70
    64
 62
     7
  6
CONTINUOUS
  0
LAYER
  2
15
 70
    64
 62
     7
  6
CONTINUOUS
  0
LAYER
  2
16
 70
    64
 62
     7
  6
CONTINUOUS
  0
LAYER
  2
17
 70
    64
 62
     7
  6
CONTINUOUS
  0
LAYER
  2
18
 70
    64
 62
     7
  6
CONTINUOUS
  0
LAYER
  2
19
 70
    64
 62
     7
  6
CONTINUOUS
  0
LAYER
  2
20
 70
    64
 62
     7
  6
CONTINUOUS
  0
LAYER
  2
21
 70
    64
 62
     7
  6
CONTINUOUS
  0
LAYER
  2
22
 70
    64
 62
     7
  6
CONTINUOUS
  0
LAYER
  2
23
 70
    64
 62
     7
  6
CONTINUOUS
  0
LAYER
  2
24
 70
    64
 62
     7
  6
CONTINUOUS
  0
LAYER
  2
25
 70
    64
 62
     7
  6
CONTINUOUS
  0
LAYER
  2
26
 70
    64
 62
     7
  6
CONTINUOUS
  0
LAYER
  2
27
 70
    64
 62
     7
  6
CONTINUOUS
  0
LAYER
  2
28
 70
    64
 62
     7
  6
CONTINUOUS
  0
LAYER
  2
29
 70
    64
 62
     7
  6
CONTINUOUS
  0
LAYER
  2
30
 70
    64
 62
     7
  6
CONTINUOUS
  0
LAYER
  2
31
 70
    64
 62
     7
  6
CONTINUOUS
  0
LAYER
  2
32
 70
    64
 62
     7
  6
CONTINUOUS
  0
LAYER
  2
33
 70
    64
 62
     7
  6
CONTINUOUS
  0
LAYER
  2
34
 70
    64
 62
     7
  6
CONTINUOUS
  0
LAYER
  2
35
 70
    64
 62
     7
  6
CONTINUOUS
  0
LAYER
  2
36
 70
    64
 62
     7
  6
CONTINUOUS
  0
LAYER
  2
37
 70
    64
 62
     7
  6
CONTINUOUS
  0
LAYER
  2
38
 70
    64
 62
     7
  6
CONTINUOUS
  0
LAYER
  2
39
 70
    64
 62
     7
  6
CONTINUOUS
  0
LAYER
  2
40
 70
    64
 62
     7
  6
CONTINUOUS
  0
LAYER
  2
41
 70
    64
 62
     7
  6
CONTINUOUS
  0
LAYER
  2
42
 70
    64
 62
     7
  6
CONTINUOUS
  0
LAYER
  2
43
 70
    64
 62
     7
  6
CONTINUOUS
  0
LAYER
  2
44
 70
    64
 62
     7
  6
CONTINUOUS
  0
LAYER
  2
45
 70
    64
 62
     7
  6
CONTINUOUS
  0
LAYER
  2
46
 70
    64
 62
     7
  6
CONTINUOUS
  0
LAYER
  2
47
 70
    64
 62
     7
  6
CONTINUOUS
  0
LAYER
  2
48
 70
    64
 62
     7
  6
CONTINUOUS
  0
LAYER
  2
49
 70
    64
 62
     7
  6
CONTINUOUS
  0
LAYER
  2
50
 70
    64
 62
     7
  6
CONTINUOUS
  0
LAYER
  2
51
 70
    64
 62
     7
  6
CONTINUOUS
  0
LAYER
  2
52
 70
    64
 62
     7
  6
CONTINUOUS
  0
LAYER
  2
53
 70
    64
 62
     7
  6
CONTINUOUS
  0
LAYER
  2
54
 70
    64
 62
     7
  6
CONTINUOUS
  0
LAYER
  2
55
 70
    64
 62
     7
  6
CONTINUOUS
  0
LAYER
  2
56
 70
    64
 62
     7
  6
CONTINUOUS
  0
LAYER
  2
57
 70
    64
 62
     7
  6
CONTINUOUS
  0
LAYER
  2
58
 70
    64
 62
     7
  6
CONTINUOUS
  0
LAYER
  2
59
 70
    64
 62
     7
  6
CONTINUOUS
  0
LAYER
  2
60
 70
    64
 62
     7
  6
CONTINUOUS
  0
LAYER
  2
61
 70
    64
 62
     7
  6
CONTINUOUS
  0
LAYER
  2
62
 70
    64
 62
     7
  6
CONTINUOUS
  0
LAYER
  2
63
 70
    64
 62
     7
  6
CONTINUOUS
  0
LAYER
  2
64
 70
    64
 62
     7
  6
CONTINUOUS
  0
LAYER
  2
65
 70
    64
 62
     7
  6
CONTINUOUS
  0
LAYER
  2
66
 70
    64
 62
     7
  6
CONTINUOUS
  0
LAYER
  2
67
 70
    64
 62
     7
  6
CONTINUOUS
  0
LAYER
  2
68
 70
    64
 62
     7
  6
CONTINUOUS
  0
LAYER
  2
69
 70
    64
 62
     7
  6
CONTINUOUS
  0
LAYER
  2
70
 70
    64
 62
     7
  6
CONTINUOUS
  0
LAYER
  2
71
 70
    64
 62
     7
  6
CONTINUOUS
  0
LAYER
  2
72
 70
    64
 62
     7
  6
CONTINUOUS
  0
LAYER
  2
73
 70
    64
 62
     7
  6
CONTINUOUS
  0
LAYER
  2
74
 70
    64
 62
     7
  6
CONTINUOUS
  0
LAYER
  2
75
 70
    64
 62
     7
  6
CONTINUOUS
  0
LAYER
  2
76
 70
    64
 62
     7
  6
CONTINUOUS
  0
LAYER
  2
77
 70
    64
 62
     7
  6
CONTINUOUS
  0
LAYER
  2
78
 70
    64
 62
     7
  6
CONTINUOUS
  0
LAYER
  2
79
 70
    64
 62
     7
  6
CONTINUOUS
  0
LAYER
  2
80
 70
    64
 62
     7
  6
CONTINUOUS
  0
LAYER
  2
81
 70
    64
 62
     7
  6
CONTINUOUS
  0
LAYER
  2
82
 70
    64
 62
     7
  6
CONTINUOUS
  0
LAYER
  2
83
 70
    64
 62
     7
  6
CONTINUOUS
  0
LAYER
  2
84
 70
    64
 62
     7
  6
CONTINUOUS
  0
LAYER
  2
85
 70
    64
 62
     7
  6
CONTINUOUS
  0
LAYER
  2
86
 70
    64
 62
     7
  6
CONTINUOUS
  0
LAYER
  2
87
 70
    64
 62
     7
  6
CONTINUOUS
  0
LAYER
  2
88
 70
    64
 62
     7
  6
CONTINUOUS
  0
LAYER
  2
89
 70
    64
 62
     7
  6
CONTINUOUS
  0
LAYER
  2
90
 70
    64
 62
     7
  6
CONTINUOUS
  0
LAYER
  2
91
 70
    64
 62
     7
  6
CONTINUOUS
  0
LAYER
  2
92
 70
    64
 62
     7
  6
CONTINUOUS
  0
LAYER
  2
93
 70
    64
 62
     7
  6
CONTINUOUS
  0
LAYER
  2
94
 70
    64
 62
     7
  6
CONTINUOUS
  0
LAYER
  2
95
 70
    64
 62
     7
  6
CONTINUOUS
  0
LAYER
  2
96
 70
    64
 62
     7
  6
CONTINUOUS
  0
LAYER
  2
97
 70
    64
 62
     7
  6
CONTINUOUS
  0
LAYER
  2
98
 70
    64
 62
     7
  6
CONTINUOUS
  0
LAYER
  2
99
 70
    64
 62
     7
  6
CONTINUOUS
  0
LAYER
  2
100
 70
    64
 62
     7
  6
CONTINUOUS
  0
LAYER
  2
101
 70
    64
 62
     7
  6
CONTINUOUS
  0
LAYER
  2
102
 70
    64
 62
     7
  6
CONTINUOUS
  0
LAYER
  2
103
 70
    64
 62
     7
  6
CONTINUOUS
  0
LAYER
  2
104
 70
    64
 62
     7
  6
CONTINUOUS
  0
LAYER
  2
105
 70
    64
 62
     7
  6
CONTINUOUS
  0
LAYER
  2
106
 70
    64
 62
     7
  6
CONTINUOUS
  0
LAYER
  2
107
 70
    64
 62
     7
  6
CONTINUOUS
  0
LAYER
  2
108
 70
    64
 62
     7
  6
CONTINUOUS
  0
LAYER
  2
109
 70
    64
 62
     7
  6
CONTINUOUS
  0
LAYER
  2
110
 70
    64
 62
     7
  6
CONTINUOUS
  0
LAYER
  2
111
 70
    64
 62
     7
  6
CONTINUOUS
  0
LAYER
  2
112
 70
    64
 62
     7
  6
CONTINUOUS
  0
LAYER
  2
113
 70
    64
 62
     7
  6
CONTINUOUS
  0
LAYER
  2
114
 70
    64
 62
     7
  6
CONTINUOUS
  0
LAYER
  2
115
 70
    64
 62
     7
  6
CONTINUOUS
  0
LAYER
  2
116
 70
    64
 62
     7
  6
CONTINUOUS
  0
LAYER
  2
117
 70
    64
 62
     7
  6
CONTINUOUS
  0
LAYER
  2
118
 70
    64
 62
     7
  6
CONTINUOUS
  0
LAYER
  2
119
 70
    64
 62
     7
  6
CONTINUOUS
  0
LAYER
  2
120
 70
    64
 62
     7
  6
CONTINUOUS
  0
LAYER
  2
121
 70
    64
 62
     7
  6
CONTINUOUS
  0
LAYER
  2
122
 70
    64
 62
     7
  6
CONTINUOUS
  0
LAYER
  2
123
 70
    64
 62
     7
  6
CONTINUOUS
  0
LAYER
  2
124
 70
    64
 62
     7
  6
CONTINUOUS
  0
LAYER
  2
125
 70
    64
 62
     7
  6
CONTINUOUS
  0
LAYER
  2
126
 70
    64
 62
     7
  6
CONTINUOUS
  0
LAYER
  2
127
 70
    64
 62
     7
  6
CONTINUOUS
  0
LAYER
  2
128
 70
    64
 62
     7
  6
CONTINUOUS
  0
LAYER
  2
129
 70
    64
 62
     7
  6
CONTINUOUS
  0
LAYER
  2
130
 70
    64
 62
     7
  6
CONTINUOUS
  0
LAYER
  2
131
 70
    64
 62
     7
  6
CONTINUOUS
  0
LAYER
  2
132
 70
    64
 62
     7
  6
CONTINUOUS
  0
LAYER
  2
133
 70
    64
 62
     7
  6
CONTINUOUS
  0
LAYER
  2
134
 70
    64
 62
     7
  6
CONTINUOUS
  0
LAYER
  2
135
 70
    64
 62
     7
  6
CONTINUOUS
  0
LAYER
  2
136
 70
    64
 62
     7
  6
CONTINUOUS
  0
LAYER
  2
137
 70
    64
 62
     7
  6
CONTINUOUS
  0
LAYER
  2
138
 70
    64
 62
     7
  6
CONTINUOUS
  0
LAYER
  2
139
 70
    64
 62
     7
  6
CONTINUOUS
  0
LAYER
  2
140
 70
    64
 62
     7
  6
CONTINUOUS
  0
LAYER
  2
141
 70
    64
 62
     7
  6
CONTINUOUS
  0
LAYER
  2
142
 70
    64
 62
     7
  6
CONTINUOUS
  0
LAYER
  2
143
 70
    64
 62
     7
  6
CONTINUOUS
  0
LAYER
  2
144
 70
    64
 62
     7
  6
CONTINUOUS
  0
LAYER
  2
145
 70
    64
 62
     7
  6
CONTINUOUS
  0
LAYER
  2
146
 70
    64
 62
     7
  6
CONTINUOUS
  0
LAYER
  2
147
 70
    64
 62
     7
  6
CONTINUOUS
  0
LAYER
  2
148
 70
    64
 62
     7
  6
CONTINUOUS
  0
LAYER
  2
149
 70
    64
 62
     7
  6
CONTINUOUS
  0
LAYER
  2
150
 70
    64
 62
     7
  6
CONTINUOUS
  0
LAYER
  2
151
 70
    64
 62
     7
  6
CONTINUOUS
  0
LAYER
  2
152
 70
    64
 62
     7
  6
CONTINUOUS
  0
LAYER
  2
153
 70
    64
 62
     7
  6
CONTINUOUS
  0
LAYER
  2
154
 70
    64
 62
     7
  6
CONTINUOUS
  0
LAYER
  2
155
 70
    64
 62
     7
  6
CONTINUOUS
  0
LAYER
  2
156
 70
    64
 62
     7
  6
CONTINUOUS
  0
LAYER
  2
157
 70
    64
 62
     7
  6
CONTINUOUS
  0
LAYER
  2
158
 70
    64
 62
     7
  6
CONTINUOUS
  0
LAYER
  2
159
 70
    64
 62
     7
  6
CONTINUOUS
  0
LAYER
  2
160
 70
    64
 62
     7
  6
CONTINUOUS
  0
LAYER
  2
161
 70
    64
 62
     7
  6
CONTINUOUS
  0
LAYER
  2
162
 70
    64
 62
     7
  6
CONTINUOUS
  0
LAYER
  2
163
 70
    64
 62
     7
  6
CONTINUOUS
  0
LAYER
  2
164
 70
    64
 62
     7
  6
CONTINUOUS
  0
LAYER
  2
165
 70
    64
 62
     7
  6
CONTINUOUS
  0
LAYER
  2
166
 70
    64
 62
     7
  6
CONTINUOUS
  0
LAYER
  2
167
 70
    64
 62
     7
  6
CONTINUOUS
  0
LAYER
  2
168
 70
    64
 62
     7
  6
CONTINUOUS
  0
LAYER
  2
169
 70
    64
 62
     7
  6
CONTINUOUS
  0
LAYER
  2
170
 70
    64
 62
     7
  6
CONTINUOUS
  0
LAYER
  2
171
 70
    64
 62
     7
  6
CONTINUOUS
  0
LAYER
  2
172
 70
    64
 62
     7
  6
CONTINUOUS
  0
LAYER
  2
173
 70
    64
 62
     7
  6
CONTINUOUS
  0
LAYER
  2
174
 70
    64
 62
     7
  6
CONTINUOUS
  0
LAYER
  2
175
 70
    64
 62
     7
  6
CONTINUOUS
  0
LAYER
  2
176
 70
    64
 62
     7
  6
CONTINUOUS
  0
LAYER
  2
177
 70
    64
 62
     7
  6
CONTINUOUS
  0
LAYER
  2
178
 70
    64
 62
     7
  6
CONTINUOUS
  0
LAYER
  2
179
 70
    64
 62
     7
  6
CONTINUOUS
  0
LAYER
  2
180
 70
    64
 62
     7
  6
CONTINUOUS
  0
LAYER
  2
181
 70
    64
 62
     7
  6
CONTINUOUS
  0
LAYER
  2
182
 70
    64
 62
     7
  6
CONTINUOUS
  0
LAYER
  2
183
 70
    64
 62
     7
  6
CONTINUOUS
  0
LAYER
  2
184
 70
    64
 62
     7
  6
CONTINUOUS
  0
LAYER
  2
185
 70
    64
 62
     7
  6
CONTINUOUS
  0
LAYER
  2
186
 70
    64
 62
     7
  6
CONTINUOUS
  0
LAYER
  2
187
 70
    64
 62
     7
  6
CONTINUOUS
  0
LAYER
  2
188
 70
    64
 62
     7
  6
CONTINUOUS
  0
LAYER
  2
189
 70
    64
 62
     7
  6
CONTINUOUS
  0
LAYER
  2
190
 70
    64
 62
     7
  6
CONTINUOUS
  0
LAYER
  2
191
 70
    64
 62
     7
  6
CONTINUOUS
  0
LAYER
  2
192
 70
    64
 62
     7
  6
CONTINUOUS
  0
LAYER
  2
193
 70
    64
 62
     7
  6
CONTINUOUS
  0
LAYER
  2
194
 70
    64
 62
     7
  6
CONTINUOUS
  0
LAYER
  2
195
 70
    64
 62
     7
  6
CONTINUOUS
  0
LAYER
  2
196
 70
    64
 62
     7
  6
CONTINUOUS
  0
LAYER
  2
197
 70
    64
 62
     7
  6
CONTINUOUS
  0
LAYER
  2
198
 70
    64
 62
     7
  6
CONTINUOUS
  0
LAYER
  2
199
 70
    64
 62
     7
  6
CONTINUOUS
  0
LAYER
  2
200
 70
    64
 62
     7
  6
CONTINUOUS
  0
LAYER
  2
201
 70
    64
 62
     7
  6
CONTINUOUS
  0
LAYER
  2
202
 70
    64
 62
     7
  6
CONTINUOUS
  0
LAYER
  2
203
 70
    64
 62
     7
  6
CONTINUOUS
  0
LAYER
  2
204
 70
    64
 62
     7
  6
CONTINUOUS
  0
LAYER
  2
205
 70
    64
 62
     7
  6
CONTINUOUS
  0
LAYER
  2
206
 70
    64
 62
     7
  6
CONTINUOUS
  0
LAYER
  2
207
 70
    64
 62
     7
  6
CONTINUOUS
  0
LAYER
  2
208
 70
    64
 62
     7
  6
CONTINUOUS
  0
LAYER
  2
209
 70
    64
 62
     7
  6
CONTINUOUS
  0
LAYER
  2
210
 70
    64
 62
     7
  6
CONTINUOUS
  0
LAYER
  2
211
 70
    64
 62
     7
  6
CONTINUOUS
  0
LAYER
  2
212
 70
    64
 62
     7
  6
CONTINUOUS
  0
LAYER
  2
213
 70
    64
 62
     7
  6
CONTINUOUS
  0
LAYER
  2
214
 70
    64
 62
     7
  6
CONTINUOUS
  0
LAYER
  2
215
 70
    64
 62
     7
  6
CONTINUOUS
  0
LAYER
  2
216
 70
    64
 62
     7
  6
CONTINUOUS
  0
LAYER
  2
217
 70
    64
 62
     7
  6
CONTINUOUS
  0
LAYER
  2
218
 70
    64
 62
     7
  6
CONTINUOUS
  0
LAYER
  2
219
 70
    64
 62
     7
  6
CONTINUOUS
  0
LAYER
  2
220
 70
    64
 62
     7
  6
CONTINUOUS
  0
LAYER
  2
221
 70
    64
 62
     7
  6
CONTINUOUS
  0
LAYER
  2
222
 70
    64
 62
     7
  6
CONTINUOUS
  0
LAYER
  2
223
 70
    64
 62
     7
  6
CONTINUOUS
  0
LAYER
  2
224
 70
    64
 62
     7
  6
CONTINUOUS
  0
LAYER
  2
225
 70
    64
 62
     7
  6
CONTINUOUS
  0
LAYER
  2
226
 70
    64
 62
     7
  6
CONTINUOUS
  0
LAYER
  2
227
 70
    64
 62
     7
  6
CONTINUOUS
  0
LAYER
  2
228
 70
    64
 62
     7
  6
CONTINUOUS
  0
LAYER
  2
229
 70
    64
 62
     7
  6
CONTINUOUS
  0
LAYER
  2
230
 70
    64
 62
     7
  6
CONTINUOUS
  0
LAYER
  2
231
 70
    64
 62
     7
  6
CONTINUOUS
  0
LAYER
  2
232
 70
    64
 62
     7
  6
CONTINUOUS
  0
LAYER
  2
233
 70
    64
 62
     7
  6
CONTINUOUS
  0
LAYER
  2
234
 70
    64
 62
     7
  6
CONTINUOUS
  0
LAYER
  2
235
 70
    64
 62
     7
  6
CONTINUOUS
  0
LAYER
  2
236
 70
    64
 62
     7
  6
CONTINUOUS
  0
LAYER
  2
237
 70
    64
 62
     7
  6
CONTINUOUS
  0
LAYER
  2
238
 70
    64
 62
     7
  6
CONTINUOUS
  0
LAYER
  2
239
 70
    64
 62
     7
  6
CONTINUOUS
  0
LAYER
  2
240
 70
    64
 62
     7
  6
CONTINUOUS
  0
LAYER
  2
241
 70
    64
 62
     7
  6
CONTINUOUS
  0
LAYER
  2
242
 70
    64
 62
     7
  6
CONTINUOUS
  0
LAYER
  2
243
 70
    64
 62
     7
  6
CONTINUOUS
  0
LAYER
  2
244
 70
    64
 62
     7
  6
CONTINUOUS
  0
LAYER
  2
245
 70
    64
 62
     7
  6
CONTINUOUS
  0
LAYER
  2
246
 70
    64
 62
     7
  6
CONTINUOUS
  0
LAYER
  2
247
 70
    64
 62
     7
  6
CONTINUOUS
  0
LAYER
  2
248
 70
    64
 62
     7
  6
CONTINUOUS
  0
LAYER
  2
249
 70
    64
 62
     7
  6
CONTINUOUS
  0
LAYER
  2
250
 70
    64
 62
     7
  6
CONTINUOUS
  0
LAYER
  2
251
 70
    64
 62
     7
  6
CONTINUOUS
  0
LAYER
  2
252
 70
    64
 62
     7
  6
CONTINUOUS
  0
LAYER
  2
253
 70
    64
 62
     7
  6
CONTINUOUS
  0
LAYER
  2
254
 70
    64
 62
     7
  6
CONTINUOUS
  0
LAYER
  2
255
 70
    64
 62
     7
  6
CONTINUOUS
  0
ENDTAB
  0
TABLE
  2
STYLE
 70
     2
  0
STYLE
  2
STANDARD
 70
    64
 40
0.0
 41
1.0
 50
0.0
 71
     0
 42
3.000000
  3
TXT
  4
BIGFONT
  0
ENDTAB
  0
ENDSEC
  0
SECTION
  2
ENTITIES
  0
ARC
  8
0
  6
CONTINUOUS
 62
     3
 10
-2.8749580383300781
 20
-57.039524412776579
 40
 2.5
 50
-179.9999980615126
 51
 120.7627189635311
  0
ARC
  8
0
  6
CONTINUOUS
 62
     3
 10
-2.8749580383300781
 20
-57.039524412776579
 40
 4.8000001907348633
 50
-179.9999980615126
 51
 120.76273262390967
  0
LINE
  8
0
  6
CONTINUOUS
 62
     3
 10
-4.8749504089355469
 20
-48.539528227473852
 11
 4.6250572204589844
 21
-48.539528227473852
  0
LINE
  8
0
  6
CONTINUOUS
 62
     3
 10
-4.8749504089355469
 20
-50.839523649837126
 11
 4.6250572204589844
 21
-50.839523649837126
  0
LINE
  8
0
  6
CONTINUOUS
 62
     3
 10
-7.6749534606933594
 20
-57.039524412776579
 11
-7.6749534606933594
 21
-52.839508391048064
  0
ARC
  8
0
  6
CONTINUOUS
 62
     3
 10
-3.3749580383300781
 20
-52.839508391048064
 40
 4.3000001907348633
 50
 90.000004039712721
 51
-179.9999980615126
  0
LINE
  8
0
  6
CONTINUOUS
 62
     3
 10
-5.3749504089355469
 20
-57.039524412776579
 11
-5.3749504089355469
 21
-52.839508391048064
  0
ARC
  8
0
  6
CONTINUOUS
 62
     3
 10
-3.3749580383300781
 20
-52.839508391048064
 40
 2
 50
 90.000004039712721
 51
-179.9999980615126
  0
LINE
  8
0
  6
CONTINUOUS
 62
     3
 10
 4.6250572204589844
 20
-48.539528227473852
 11
 4.6250572204589844
 21
-50.839523649837126
  0
LINE
  8
0
  6
CONTINUOUS
 62
     3
 10
-4.1536598205566406
 20
-54.891292906428923
 11
-5.3749504089355469
 21
-52.839508391048064
  0
LINE
  8
0
  6
CONTINUOUS
 62
     3
 10
-4.8749504089355469
 20
-48.539528227473852
 11
-4.8749504089355469
 21
-50.839523649837126
  0
LINE
  8
0
  6
DASHDOT
 62
     7
 10
-2.8749580383300781
 20
-45.135942793513884
 11
-2.8749580383300781
 21
-63.666122770930876
  0
LINE
  8
0
  6
DASHDOT
 62
     7
 10
-9.7900581359863281
 20
-57.039535856868376
 11
 3.7275810241699219
 21
-57.039535856868376
  0
LINE
  8
0
  6
DASHDOT
 62
     7
 10
-2.8749961853027344
 20
 50.420478486393343
 11
-2.8749961853027344
 21
-13.91452155175363
  0
LINE
  8
0
  6
CONTINUOUS
 62
     3
 10
-4.8749961853027344
 20
 60.460471772526155
 11
 4.6250038146972656
 21
 60.460471772526155
  0
LINE
  8
0
  6
CONTINUOUS
 62
     3
 10
 4.6250038146972656
 20
 60.460471772526155
 11
 4.6250038146972656
 21
-24.539516783382055
  0
LINE
  8
0
  6
CONTINUOUS
 62
     3
 10
 4.6250038146972656
 20
-24.539516783382055
 11
-4.8749961853027344
 21
-24.539516783382055
  0
LINE
  8
0
  6
CONTINUOUS
 62
     3
 10
-4.8749961853027344
 20
-24.539516783382055
 11
-4.8749961853027344
 21
-14.03952941956674
  0
ARC
  8
0
  6
CONTINUOUS
 62
     3
 10
-6.8749961853027344
 20
-14.03952941956674
 40
 2
 50
 0
 51
 90.000004039712721
  0
LINE
  8
0
  6
CONTINUOUS
 62
     3
 10
-4.8749961853027344
 20
 4.9604755872234207
 11
-4.8749961853027344
 21
 30.960475587223421
  0
ARC
  8
0
  6
CONTINUOUS
 62
     3
 10
-6.8749961853027344
 20
 30.960475587223421
 40
 2
 50
 0
 51
 90.000004039712721
  0
LINE
  8
0
  6
CONTINUOUS
 62
     3
 10
-4.8749961853027344
 20
 49.960471772526155
 11
-4.8749961853027344
 21
 60.460471772526155
  0
LINE
  8
0
  6
CONTINUOUS
 62
     3
 10
-7.6749916076660156
 20
 47.960471772526155
 11
-6.8749961853027344
 21
 47.960471772526155
  0
LINE
  8
0
  6
DOT
 62
     3
 10
-6.8749961853027344
 20
 47.960471772526155
 11
 1.9250068664550781
 21
 47.960471772526155
  0
ARC
  8
0
  6
CONTINUOUS
 62
     3
 10
-6.8749961853027344
 20
 49.960471772526155
 40
 2
 50
-90.000000851989171
 51
 0
  0
LINE
  8
0
  6
DOT
 62
     3
 10
 1.9250068664550781
 20
 47.960471772526155
 11
 1.9250068664550781
 21
 32.960475587223421
  0
LINE
  8
0
  6
CONTINUOUS
 62
     3
 10
-6.8749961853027344
 20
 32.960475587223421
 11
-7.6749916076660156
 21
 32.960475587223421
  0
LINE
  8
0
  6
DOT
 62
     3
 10
 1.9250068664550781
 20
 32.960475587223421
 11
-6.8749961853027344
 21
 32.960475587223421
  0
LINE
  8
0
  6
CONTINUOUS
 62
     3
 10
-7.6749916076660156
 20
 32.960475587223421
 11
-7.6749916076660156
 21
 47.960471772526155
  0
LINE
  8
0
  6
CONTINUOUS
 62
     3
 10
-7.6749916076660156
 20
 2.9604736798747879
 11
-6.8749961853027344
 21
 2.9604736798747879
  0
LINE
  8
0
  6
DOT
 62
     3
 10
-6.8749961853027344
 20
 2.9604736798747879
 11
 1.9250068664550781
 21
 2.9604736798747879
  0
ARC
  8
0
  6
CONTINUOUS
 62
     3
 10
-6.8749961853027344
 20
 4.9604755872234207
 40
 2
 50
-90.000000851989171
 51
 0
  0
LINE
  8
0
  6
DOT
 62
     3
 10
 1.9250068664550781
 20
 2.9604736798747879
 11
 1.9250068664550781
 21
-12.039524412776583
  0
LINE
  8
0
  6
CONTINUOUS
 62
     3
 10
-6.8749961853027344
 20
-12.039524412776583
 11
-7.6749916076660156
 21
-12.039524412776583
  0
LINE
  8
0
  6
DOT
 62
     3
 10
 1.9250068664550781
 20
-12.039524412776583
 11
-6.8749961853027344
 21
-12.039524412776583
  0
LINE
  8
0
  6
CONTINUOUS
 62
     3
 10
-7.6749916076660156
 20
-12.039524412776583
 11
-7.6749916076660156
 21
 2.9604736798747879
  0
LINE
  8
0
  6
DOT
 62
     3
 10
-0.3749961853027344
 20
 47.960471772526155
 11
-0.3749961853027344
 21
 32.960475587223421
  0
LINE
  8
0
  6
DOT
 62
     3
 10
-5.3749885559082031
 20
 32.960475587223421
 11
-5.3749885559082031
 21
 47.960471772526155
  0
LINE
  8
0
  6
DOT
 62
     3
 10
-5.3749885559082031
 20
-12.039524412776583
 11
-5.3749885559082031
 21
 2.9604736798747879
  0
LINE
  8
0
  6
DOT
 62
     3
 10
-0.3749961853027344
 20
-12.039524412776583
 11
-0.3749961853027344
 21
 2.9604736798747879
  0
LINE
  8
0
  6
CONTINUOUS
 62
     7
 10
-2.8749580383300781
 20
-41.939518309260954
 11
-7.6749534606933594
 21
-41.939518309260954
  0
TEXT
  8
0
  6
CONTINUOUS
 62
     7
 10
-17.691666412353516
 20
-40.979523039485557
 11
-11.891666412353516
 21
-40.979523039485557
 40
 2
 41
 0.8
  1
４．８
 50
 0
 72
  5
  0
LINE
  8
0
  6
CONTINUOUS
 62
     7
 10
-18.291660308837891
 20
-41.939518309260954
 11
-7.6749534606933594
 21
-41.939518309260954
  0
LINE
  8
0
  6
CONTINUOUS
 62
     7
 10
-7.6749534606933594
 20
-41.939518309260954
 11
-10.572730939560564
 21
-41.163061173953395
  0
LINE
  8
0
  6
CONTINUOUS
 62
     7
 10
-7.6749534606933594
 20
-41.939518309260954
 11
-10.572730939560564
 21
-42.715975444568514
  0
LINE
  8
0
  6
CONTINUOUS
 62
     3
 10
 37.324993133544922
 20
 60.460487031315218
 11
 39.624996185302734
 21
 60.460487031315218
  0
LINE
  8
0
  6
CONTINUOUS
 62
     3
 10
 39.624996185302734
 20
 60.460487031315218
 11
 39.624996185302734
 21
-24.539516783382055
  0
ARC
  8
0
  6
CONTINUOUS
 62
     3
 10
 40.124996185302734
 20
 32.460475587223421
 40
 0.5
 50
 90.000004039712721
 51
-179.9999980615126
  0
LINE
  8
0
  6
CONTINUOUS
 62
     3
 10
 39.624996185302734
 20
-24.539516783382055
 11
 37.324993133544922
 21
-24.539516783382055
  0
LINE
  8
0
  6
CONTINUOUS
 62
     3
 10
 37.324993133544922
 20
-24.539516783382055
 11
 37.324993133544922
 21
 60.460487031315218
  0
ARC
  8
0
  6
DOT
 62
     3
 10
 39.324993133544922
 20
-14.039523220683684
 40
 2
 50
 90.000004039712721
 51
-179.9999980615126
  0
ARC
  8
0
  6
DOT
 62
     3
 10
 39.324993133544922
 20
 4.9604755872234207
 40
 2
 50
-179.9999980615126
 51
-90.000000851989171
  0
ARC
  8
0
  6
DOT
 62
     3
 10
 39.324993133544922
 20
 30.960475587223421
 40
 2
 50
 90.000004039712721
 51
-179.9999980615126
  0
ARC
  8
0
  6
DOT
 62
     3
 10
 39.324993133544922
 20
 49.960471772526155
 40
 2
 50
-179.9999980615126
 51
-90.000000851989171
  0
LINE
  8
0
  6
CONTINUOUS
 62
     3
 10
 40.124996185302734
 20
 47.960471772526155
 11
 50.624992370605469
 21
 47.960471772526155
  0
LINE
  8
0
  6
DOT
 62
     3
 10
 39.324993133544922
 20
 47.960471772526155
 11
 40.124996185302734
 21
 47.960471772526155
  0
ARC
  8
0
  6
CONTINUOUS
 62
     3
 10
 40.124996185302734
 20
 48.460471772526155
 40
 0.5
 50
-179.9999980615126
 51
-90.000000851989171
  0
LINE
  8
0
  6
CONTINUOUS
 62
     3
 10
 40.124996185302734
 20
 32.960475587223421
 11
 50.624992370605469
 21
 32.960475587223421
  0
LINE
  8
0
  6
DOT
 62
     3
 10
 39.324993133544922
 20
 32.960475587223421
 11
 40.124996185302734
 21
 32.960475587223421
  0
LINE
  8
0
  6
CONTINUOUS
 62
     3
 10
 40.124996185302734
 20
 2.9604736798747879
 11
 50.624992370605469
 21
 2.9604736798747879
  0
LINE
  8
0
  6
DOT
 62
     3
 10
 39.324993133544922
 20
 2.9604736798747879
 11
 40.124996185302734
 21
 2.9604736798747879
  0
ARC
  8
0
  6
CONTINUOUS
 62
     3
 10
 40.124996185302734
 20
 3.4604736798747879
 40
 0.5
 50
-179.9999980615126
 51
-90.000000851989171
  0
LINE
  8
0
  6
CONTINUOUS
 62
     3
 10
 40.124996185302734
 20
-12.039524412776583
 11
 50.624992370605469
 21
-12.039524412776583
  0
LINE
  8
0
  6
DOT
 62
     3
 10
 39.324993133544922
 20
-12.039524412776583
 11
 40.124996185302734
 21
-12.039524412776583
  0
ARC
  8
0
  6
CONTINUOUS
 62
     3
 10
 40.124996185302734
 20
-12.539523935939421
 40
 0.5
 50
 90.000004039712721
 51
-179.9999980615126
  0
LINE
  8
0
  6
DASHDOT
 62
     7
 10
 45.824993133544922
 20
 49.579139375065218
 11
 45.824993133544922
 21
-13.353620148326513
  0
LINE
  8
0
  6
CONTINUOUS
 62
     3
 10
 50.624992370605469
 20
 47.960471772526155
 11
 50.624992370605469
 21
 32.960475587223421
  0
LINE
  8
0
  6
DOT
 62
     3
 10
 48.324993133544922
 20
 47.960471772526155
 11
 48.324993133544922
 21
 32.960475587223421
  0
LINE
  8
0
  6
DOT
 62
     3
 10
 43.324993133544922
 20
 47.960471772526155
 11
 43.324993133544922
 21
 32.960475587223421
  0
LINE
  8
0
  6
CONTINUOUS
 62
     3
 10
 41.024997711181641
 20
 47.960471772526155
 11
 41.024997711181641
 21
 32.960475587223421
  0
LINE
  8
0
  6
CONTINUOUS
 62
     3
 10
 50.624992370605469
 20
 2.9604736798747879
 11
 50.624992370605469
 21
-12.039524412776583
  0
LINE
  8
0
  6
DOT
 62
     3
 10
 48.324993133544922
 20
 2.9604736798747879
 11
 48.324993133544922
 21
-12.039524412776583
  0
LINE
  8
0
  6
DOT
 62
     3
 10
 43.324993133544922
 20
 2.9604736798747879
 11
 43.324993133544922
 21
-12.039524412776583
  0
LINE
  8
0
  6
CONTINUOUS
 62
     3
 10
 41.024997711181641
 20
 2.9604736798747879
 11
 41.024997711181641
 21
-12.039524412776583
  0
LINE
  8
0
  6
CONTINUOUS
 62
     3
 10
-43.075000762939453
 20
 60.460487031315218
 11
-45.375003814697266
 21
 60.460487031315218
  0
LINE
  8
0
  6
CONTINUOUS
 62
     3
 10
-45.375003814697266
 20
 60.460487031315218
 11
-45.375003814697266
 21
 48.460471772526155
  0
LINE
  8
0
  6
DOT
 62
     3
 10
-45.375003814697266
 20
 48.460471772526155
 11
-45.375003814697266
 21
 32.460475587223421
  0
LINE
  8
0
  6
CONTINUOUS
 62
     3
 10
-45.375003814697266
 20
 32.460475587223421
 11
-45.375003814697266
 21
 3.4604736798747879
  0
LINE
  8
0
  6
DOT
 62
     3
 10
-45.375003814697266
 20
 3.4604736798747879
 11
-45.375003814697266
 21
-12.539523935939421
  0
LINE
  8
0
  6
CONTINUOUS
 62
     3
 10
-45.375003814697266
 20
-12.539523935939421
 11
-45.375003814697266
 21
-24.539516783382055
  0
ARC
  8
0
  6
CONTINUOUS
 62
     3
 10
-45.875003814697266
 20
-12.539523935939421
 40
 0.5
 50
 0
 51
 90.000004039712721
  0
ARC
  8
0
  6
CONTINUOUS
 62
     3
 10
-45.875003814697266
 20
 32.460475587223421
 40
 0.5
 50
 0
 51
 90.000004039712721
  0
LINE
  8
0
  6
CONTINUOUS
 62
     3
 10
-45.375003814697266
 20
-24.539516783382055
 11
-43.075000762939453
 21
-24.539516783382055
  0
LINE
  8
0
  6
CONTINUOUS
 62
     3
 10
-43.075000762939453
 20
-24.539516783382055
 11
-43.075000762939453
 21
 60.460487031315218
  0
ARC
  8
0
  6
CONTINUOUS
 62
     3
 10
-45.075000762939453
 20
-14.039523220683684
 40
 2
 50
 0
 51
 90.000004039712721
  0
ARC
  8
0
  6
CONTINUOUS
 62
     3
 10
-45.075000762939453
 20
 30.960475587223421
 40
 2
 50
 0
 51
 90.000004039712721
  0
LINE
  8
0
  6
CONTINUOUS
 62
     3
 10
-45.075000762939453
 20
 47.960471772526155
 11
-56.375003814697266
 21
 47.960471772526155
  0
ARC
  8
0
  6
CONTINUOUS
 62
     3
 10
-45.875003814697266
 20
 48.460471772526155
 40
 0.5
 50
-90.000000851989171
 51
 0
  0
ARC
  8
0
  6
CONTINUOUS
 62
     3
 10
-45.075000762939453
 20
 49.960471772526155
 40
 2
 50
-90.000000851989171
 51
 0
  0
LINE
  8
0
  6
CONTINUOUS
 62
     3
 10
-45.075000762939453
 20
 32.960475587223421
 11
-56.375003814697266
 21
 32.960475587223421
  0
LINE
  8
0
  6
CONTINUOUS
 62
     3
 10
-45.075000762939453
 20
 2.9604736798747879
 11
-56.375003814697266
 21
 2.9604736798747879
  0
ARC
  8
0
  6
CONTINUOUS
 62
     3
 10
-45.875003814697266
 20
 3.4604736798747879
 40
 0.5
 50
-90.000000851989171
 51
 0
  0
ARC
  8
0
  6
CONTINUOUS
 62
     3
 10
-45.075000762939453
 20
 4.9604755872234207
 40
 2
 50
-90.000000851989171
 51
 0
  0
LINE
  8
0
  6
CONTINUOUS
 62
     3
 10
-45.075000762939453
 20
-12.039524412776583
 11
-56.375003814697266
 21
-12.039524412776583
  0
LINE
  8
0
  6
DASHDOT
 62
     7
 10
-51.575000762939453
 20
 49.747321748112093
 11
-51.575000762939453
 21
-14.868070698405852
  0
LINE
  8
0
  6
CONTINUOUS
 62
     3
 10
-56.375003814697266
 20
 47.960471772526155
 11
-56.375003814697266
 21
 32.960475587223421
  0
LINE
  8
0
  6
DOT
 62
     3
 10
-54.075000762939453
 20
 47.960471772526155
 11
-54.075000762939453
 21
 32.960475587223421
  0
LINE
  8
0
  6
DOT
 62
     3
 10
-49.075000762939453
 20
 47.960471772526155
 11
-49.075000762939453
 21
 32.960475587223421
  0
LINE
  8
0
  6
DOT
 62
     3
 10
-46.775012969970703
 20
 47.960471772526155
 11
-46.775012969970703
 21
 32.960475587223421
  0
LINE
  8
0
  6
CONTINUOUS
 62
     3
 10
-56.375003814697266
 20
 2.9604736798747879
 11
-56.375003814697266
 21
-12.039524412776583
  0
LINE
  8
0
  6
DOT
 62
     3
 10
-54.075000762939453
 20
 2.9604736798747879
 11
-54.075000762939453
 21
-12.039524412776583
  0
LINE
  8
0
  6
DOT
 62
     3
 10
-49.075000762939453
 20
 2.9604736798747879
 11
-49.075000762939453
 21
-12.039524412776583
  0
LINE
  8
0
  6
DOT
 62
     3
 10
-46.775012969970703
 20
 2.9604736798747879
 11
-46.775012969970703
 21
-12.039524412776583
  0
ARC
  8
0
  6
DOT
 62
     3
 10
 40.124996185302734
 20
 55.460471772526155
 40
 1
 50
 119.99993708439077
 51
-119.99994072685652
  0
ARC
  8
0
  6
DOT
 62
     3
 10
 40.124996185302734
 20
-19.539526320125219
 40
 1
 50
 119.99993708439077
 51
-119.99994072685652
  0
LINE
  8
0
  6
DASHDOT
 62
     3
 10
 41.660312652587891
 20
-19.539526320125219
 11
 34.705173492431641
 21
-19.539526320125219
  0
LINE
  8
0
  6
DASHDOT
 62
     3
 10
 42.445571899414063
 20
 55.460471772526155
 11
 34.256462097167976
 21
 55.460471772526155
  0
LINE
  8
0
  6
CONTINUOUS
 62
     7
 10
 4.6250038146972656
 20
-26.478638983394262
 11
 4.6250038146972656
 21
-30.499522543574926
  0
LINE
  8
0
  6
CONTINUOUS
 62
     7
 10
 0.1249961853027344
 20
-29.539520598079321
 11
 4.6250038146972656
 21
-29.539520598079321
  0
TEXT
  8
0
  6
CONTINUOUS
 62
     7
 10
 6.2250053405761721
 20
-28.579517698909392
 11
 12.025005340576172
 21
-28.579517698909392
 40
 2
 41
 0.8
  1
４．５
 50
 0
 72
  5
  0
LINE
  8
0
  6
CONTINUOUS
 62
     7
 10
 13.625003814697266
 20
-29.539520598079321
 11
 4.6250038146972656
 21
-29.539520598079321
  0
LINE
  8
0
  6
CONTINUOUS
 62
     7
 10
 4.6250038146972656
 20
-29.539520598079321
 11
 7.5227812935644707
 21
-30.315977733386884
  0
LINE
  8
0
  6
CONTINUOUS
 62
     7
 10
 4.6250038146972656
 20
-29.539520598079321
 11
 7.5227812935644707
 21
-28.763063462771758
  0
ARC
  8
0
  6
DOT
 62
     3
 10
-45.874988555908203
 20
 55.460471772526155
 40
 1
 50
-60.000060977121848
 51
 60.000064164845391
  0
ARC
  8
0
  6
DOT
 62
     3
 10
-45.874988555908203
 20
-19.539526320125219
 40
 1
 50
-60.000060977121848
 51
 60.000064164845391
  0
LINE
  8
0
  6
DASHDOT
 62
     3
 10
-47.410312652587891
 20
-19.539526320125219
 11
-40.455173492431641
 21
-19.539526320125219
  0
LINE
  8
0
  6
DASHDOT
 62
     3
 10
-48.195560455322266
 20
 55.460471772526155
 11
-40.006458282470703
 21
 55.460471772526155
  0
ARC
  8
0
  6
DOT
 62
     3
 10
 0.1250572204589844
 20
-51.339531279231657
 40
 1
 50
 29.999936459772684
 51
 150.00008186493667
  0
LINE
  8
0
  6
DASHDOT
 62
     3
 10
 0.1250572204589844
 20
-51.70502505364572
 11
 0.1250572204589844
 21
-47.189787245418195
  0
LINE
  8
0
  6
CONTINUOUS
 62
     7
 10
 6.6250572204589844
 20
-48.539528227473852
 11
 15.585002899169922
 21
-48.539528227473852
  0
LINE
  8
0
  6
CONTINUOUS
 62
     7
 10
 6.6250572204589844
 20
-50.839523649837126
 11
 15.585002899169922
 21
-50.839523649837126
  0
LINE
  8
0
  6
CONTINUOUS
 62
     7
 10
 14.625003814697266
 20
-58.519527769710173
 11
 14.625003814697266
 21
-50.839523649837126
  0
LINE
  8
0
  6
CONTINUOUS
 62
     7
 10
 14.625003814697266
 20
-50.839523649837126
 11
 13.848546679389703
 21
-53.737301128704331
  0
LINE
  8
0
  6
CONTINUOUS
 62
     7
 10
 14.625003814697266
 20
-50.839523649837126
 11
 15.401460950004829
 21
-53.737301128704331
  0
LINE
  8
0
  6
CONTINUOUS
 62
     7
 10
 14.625003814697266
 20
-48.539528227473852
 11
 14.625003814697266
 21
-50.839523649837126
  0
TEXT
  8
0
  6
CONTINUOUS
 62
     7
 10
 13.66500476519372
 20
-46.939530472580834
 11
 13.665004511667659
 21
-41.13953047258083
 40
 2
 41
 0.8
  1
２．３
 50
 90.000004039712707
 72
  5
  0
LINE
  8
0
  6
CONTINUOUS
 62
     7
 10
 14.625003814697266
 20
-39.539526320125205
 11
 14.625003814697266
 21
-48.539528227473852
  0
LINE
  8
0
  6
CONTINUOUS
 62
     7
 10
 14.625003814697266
 20
-48.539528227473852
 11
 15.401460950004829
 21
-45.641750748606647
  0
LINE
  8
0
  6
CONTINUOUS
 62
     7
 10
 14.625003814697266
 20
-48.539528227473852
 11
 13.848546679389703
 21
-45.641750748606647
  0
TEXT
  8
0
  6
CONTINUOUS
 62
     7
 10
 25.295987701416017
 20
-43.019508696223852
 11
 80.895987701416018
 21
-43.019508696223852
 40
 3.5000000000000004
 41
 0.8
  1
スポットプロジェクション（２か所）
 50
 0
 72
  5
  0
LINE
  8
0
  6
CONTINUOUS
 62
     7
 10
 22.433162689208984
 20
-43.769506788875212
 11
 83.458848476409912
 21
-43.769506788875212
  0
LINE
  8
0
  6
CONTINUOUS
 62
     7
 10
 22.433162689208984
 20
-43.769506788875212
 11
 35.670356750488281
 21
-21.577188826228713
  0
LINE
  8
0
  6
CONTINUOUS
 62
     7
 10
 35.670356750488281
 20
-21.577188826228713
 11
 33.51907455236028
 21
-23.668118022547315
  0
LINE
  8
0
  6
CONTINUOUS
 62
     7
 10
 35.670356750488281
 20
-21.577188826228713
 11
 34.852756314359503
 21
-24.463627726819201
  0
ARC
  8
0
  6
CONTINUOUS
 62
     3
 10
 0.1250572204589417
 20
-50.778633490631613
 40
 2.6951052631577674
 50
 56.181457337272619
 51
 123.81854573319649
  0
ARC
  8
0
  6
CONTINUOUS
 62
     3
 10
 39.599993133544693
 20
-19.539526320125219
 40
 2.7249999999997669
 50
 146.60151403276271
 51
-146.60151403276271
  0
ARC
  8
0
  6
CONTINUOUS
 62
     3
 10
 39.599993133544693
 20
 55.460471772526155
 40
 2.7249999999997669
 50
 146.60151403276271
 51
-146.60151403276271
  0
CIRCLE
  8
0
  6
CONTINUOUS
 62
     3
 10
 0.1249961853027344
 20
-19.539526320125219
 40
 1.5
  0
CIRCLE
  8
0
  6
DOT
 62
     3
 10
 0.1249961853027344
 20
-19.539526320125219
 40
 0.85
  0
CIRCLE
  8
0
  6
CONTINUOUS
 62
     3
 10
 0.1249961853027344
 20
 55.460471772526155
 40
 1.5
  0
CIRCLE
  8
0
  6
DOT
 62
     3
 10
 0.1249961853027344
 20
 55.460471772526155
 40
 0.85
  0
ARC
  8
0
  6
CONTINUOUS
 62
     3
 10
-45.350000762940255
 20
 55.460471772526155
 40
 2.7250000000007901
 50
-33.398489037698731
 51
 33.398489037698937
  0
ARC
  8
0
  6
CONTINUOUS
 62
     3
 10
-45.350000762940255
 20
-19.539526320125219
 40
 2.7250000000007901
 50
-33.398489037698731
 51
 33.398489037698937
  0
LINE
  8
256
  6
CONTINUOUS
 62
     7
 10
 104.99998474121094
 20
-121.5
 11
 200
 21
-121.5
  0
LINE
  8
256
  6
CONTINUOUS
 62
     7
 10
 170.99998474121094
 20
-109.5
 11
 170.99998474121094
 21
-121.5
  0
TEXT
  8
256
  6
CONTINUOUS
 62
     7
 10
 112.5
 20
-134.25
 11
 142.5
 21
-134.25
 40
 6
 41
 1
  1
ＡＥ－１Ｔ
 50
 0
 72
  5
  0
TEXT
  8
256
  6
CONTINUOUS
 62
     7
 10
 125.99998474121094
 20
-119.75
 11
 149.99998474121094
 21
-119.75
 40
 5
 41
 0.8
  1
保護板用蝶番
 50
 0
 72
  5
  0
TEXT
  8
256
  6
CONTINUOUS
 62
     7
 10
 106.29998779296875
 20
-112.4499633789062
 11
 111.29998779296875
 21
-112.4499633789062
 40
 2.5
 41
 0.8
  1
品名
 50
 0
 72
  5
  0
TEXT
  8
256
  6
CONTINUOUS
 62
     7
 10
 106.29998779296875
 20
-124.45003051757811
 11
 111.29998779296875
 21
-124.45003051757811
 40
 2.5
 41
 0.8
  1
品番
 50
 0
 72
  5
  0
LINE
  8
256
  6
CONTINUOUS
 62
     7
 10
 104.99998474121094
 20
-139.5
 11
 104.99998474121094
 21
-109.5
  0
LINE
  8
256
  6
CONTINUOUS
 62
     7
 10
 104.99998474121094
 20
-109.5
 11
 200
 21
-109.5
  0
LINE
  8
256
  6
CONTINUOUS
 62
     7
 10
-193.30000000000001
 20
 124.99999645625348
 11
-93.300000000000011
 21
 124.99999645625348
  0
LINE
  8
256
  6
CONTINUOUS
 62
     7
 10
-93.300000000000011
 20
 124.9999964562535
 11
-93.300000000000011
 21
 136.99999721136808
  0
TEXT
  8
256
  6
CONTINUOUS
 62
     7
 10
-188.30000000000001
 20
 127.99999604817611
 11
-134.30000000000001
 21
 127.99999604817611
 40
 6
 41
 1
  1
ＬＢ－Ｄ９３１０Ｂ
 50
 0
 72
  5
  0
LINE
  8
256
  6
CONTINUOUS
 62
     7
 10
 200
 20
-139.5
 11
-193.30000000000001
 21
-139.49999999999994
  0
LINE
  8
256
  6
CONTINUOUS
 62
     7
 10
 200
 20
 136.99999721136808
 11
 200
 21
-139.5
  0
LINE
  8
256
  6
CONTINUOUS
 62
     7
 10
-193.30000000000001
 20
 136.99999721136808
 11
-193.30000000000001
 21
-139.49999999999994
  0
LINE
  8
256
  6
CONTINUOUS
 62
     7
 10
-193.30000000000001
 20
 136.99999721136808
 11
 200
 21
 136.99999721136808
  0
LINE
  8
0
  6
CONTINUOUS
 62
     7
 10
 4.6250572204589844
 20
-47.119644499446515
 11
 4.6250572204589844
 21
-40.979521132136931
  0
LINE
  8
0
  6
CONTINUOUS
 62
     7
 10
-2.8749580383300781
 20
-45.135942793513884
 11
-2.8749580383300781
 21
-40.979521132136931
  0
LINE
  8
0
  6
CONTINUOUS
 62
     7
 10
 4.6250572204589844
 20
-41.939524031306838
 11
-2.8749580383300781
 21
-41.939524031306838
  0
LINE
  8
0
  6
CONTINUOUS
 62
     7
 10
 4.6250572204589844
 20
-41.939524031306838
 11
 1.7272797415917793
 21
-41.163066895999279
  0
LINE
  8
0
  6
CONTINUOUS
 62
     7
 10
 4.6250572204589844
 20
-41.939524031306838
 11
 1.7272797415917793
 21
-42.715981166614398
  0
LINE
  8
0
  6
CONTINUOUS
 62
     7
 10
-2.8749580383300781
 20
-41.939524031306838
 11
 0.0228194405371269
 21
-42.715981166614398
  0
LINE
  8
0
  6
CONTINUOUS
 62
     7
 10
-2.8749580383300781
 20
-41.939524031306838
 11
 0.0228194405371269
 21
-41.163066895999279
  0
TEXT
  8
0
  6
CONTINUOUS
 62
     7
 10
-2.0249565124511717
 20
-40.979523039485557
 11
 3.775043487548829
 21
-40.979523039485557
 40
 2
 41
 0.8
  1
7.5
 50
 0
 72
  5
  0
LINE
  8
0
  6
CONTINUOUS
 62
     7
 10
-7.6749534606933594
 20
-49.194950438167204
 11
-7.6749534606933594
 21
-35.979517317439665
  0
LINE
  8
0
  6
CONTINUOUS
 62
     7
 10
 4.6250572204589844
 20
-41.43952403130686
 11
 4.6250572204589844
 21
-35.979517317439665
  0
LINE
  8
0
  6
CONTINUOUS
 62
     7
 10
-7.6749534606933594
 20
-36.93952021660958
 11
 4.6250572204589844
 21
-36.93952021660958
  0
LINE
  8
0
  6
CONTINUOUS
 62
     7
 10
-7.6749534606933594
 20
-36.93952021660958
 11
-4.7771759818261543
 21
-37.71597735191714
  0
LINE
  8
0
  6
CONTINUOUS
 62
     7
 10
-7.6749534606933594
 20
-36.93952021660958
 11
-4.7771759818261543
 21
-36.16306308130202
  0
LINE
  8
0
  6
CONTINUOUS
 62
     7
 10
 4.6250572204589844
 20
-36.93952021660958
 11
 1.7272797415917793
 21
-36.16306308130202
  0
LINE
  8
0
  6
CONTINUOUS
 62
     7
 10
 4.6250572204589844
 20
-36.93952021660958
 11
 1.7272797415917793
 21
-37.71597735191714
  0
TEXT
  8
0
  6
CONTINUOUS
 62
     7
 10
-5.4749458312988279
 20
-35.979519224788298
 11
 2.4250541687011724
 21
-35.979519224788298
 40
 2
 41
 0.8
  1
12.3
 50
 0
 72
  5
  0
LINE
  8
0
  6
CONTINUOUS
 62
     7
 10
-5.3749656677246094
 20
-59.683735228206267
 11
-5.3749656677246094
 21
-70.499531126643774
  0
LINE
  8
0
  6
CONTINUOUS
 62
     7
 10
-0.3749580383300781
 20
-59.683735228206267
 11
-0.3749580383300781
 21
-70.499531126643774
  0
LINE
  8
0
  6
CONTINUOUS
 62
     7
 10
-5.3749656677246094
 20
-69.539535856868383
 11
-0.3749580383300781
 21
-69.539535856868383
  0
LINE
  8
0
  6
CONTINUOUS
 62
     7
 10
-5.3749656677246094
 20
-69.539535856868383
 11
-2.4771881888574043
 21
-70.31599299217595
  0
LINE
  8
0
  6
CONTINUOUS
 62
     7
 10
-5.3749656677246094
 20
-69.539535856868383
 11
-2.4771881888574043
 21
-68.763078721560817
  0
LINE
  8
0
  6
CONTINUOUS
 62
     7
 10
-0.3749580383300781
 20
-69.539535856868383
 11
-3.2727355171972832
 21
-68.763078721560817
  0
LINE
  8
0
  6
CONTINUOUS
 62
     7
 10
-0.3749580383300781
 20
-69.539535856868383
 11
-3.2727355171972832
 21
-70.31599299217595
  0
TEXT
  8
0
  6
CONTINUOUS
 62
     7
 10
-6.7749717712402342
 20
-68.579540587092993
 11
 1.1250282287597662
 21
-68.579540587092993
 40
 2
 41
 0.8
  1
φ5.1
 50
 0
 72
  5
  0
LINE
  8
0
  6
CONTINUOUS
 62
     7
 10
-7.6749534606933594
 20
-62.993042326594939
 11
-7.6749534606933594
 21
-80.499527311946508
  0
LINE
  8
0
  6
CONTINUOUS
 62
     7
 10
 1.9250373840332031
 20
-62.993042326594939
 11
 1.9250373840332031
 21
-80.499527311946508
  0
LINE
  8
0
  6
CONTINUOUS
 62
     7
 10
-7.6749534606933594
 20
-79.539532042171118
 11
 1.9250373840332031
 21
-79.539532042171118
  0
LINE
  8
0
  6
CONTINUOUS
 62
     7
 10
-7.6749534606933594
 20
-79.539532042171118
 11
-4.7771759818261543
 21
-80.315989177478684
  0
LINE
  8
0
  6
CONTINUOUS
 62
     7
 10
-7.6749534606933594
 20
-79.539532042171118
 11
-4.7771759818261543
 21
-78.763074906863551
  0
LINE
  8
0
  6
CONTINUOUS
 62
     7
 10
 1.9250373840332031
 20
-79.539532042171118
 11
-0.9727400948340019
 21
-78.763074906863551
  0
LINE
  8
0
  6
CONTINUOUS
 62
     7
 10
 1.9250373840332031
 20
-79.539532042171118
 11
-0.9727400948340019
 21
-80.315989177478684
  0
TEXT
  8
0
  6
CONTINUOUS
 62
     7
 10
-6.7749641418457029
 20
-78.579536772395727
 11
 1.1250358581542974
 21
-78.579536772395727
 40
 2
 41
 0.8
  1
φ9.6
 50
 0
 72
  5
  0
LINE
  8
0
  6
CONTINUOUS
 62
     7
 10
-6.3685722351074219
 20
-48.539528227473852
 11
-21.134975433349624
 21
-48.539528227473852
  0
LINE
  8
0
  6
CONTINUOUS
 62
     7
 10
-7.9390830993652344
 20
-61.839523649837126
 11
-21.134975433349624
 21
-61.839523649837126
  0
LINE
  8
0
  6
CONTINUOUS
 62
     7
 10
-20.174953460693374
 20
-48.539528227473852
 11
-20.174953460693374
 21
-61.839523649837126
  0
LINE
  8
0
  6
CONTINUOUS
 62
     7
 10
-20.174953460693374
 20
-48.539528227473852
 11
-20.951410596000937
 21
-51.437305706341057
  0
LINE
  8
0
  6
CONTINUOUS
 62
     7
 10
-20.174953460693374
 20
-48.539528227473852
 11
-19.39849632538581
 21
-51.437305706341057
  0
LINE
  8
0
  6
CONTINUOUS
 62
     7
 10
-20.174953460693374
 20
-61.839523649837126
 11
-19.39849632538581
 21
-58.941746170969921
  0
LINE
  8
0
  6
CONTINUOUS
 62
     7
 10
-20.174953460693374
 20
-61.839523649837126
 11
-20.951410596000937
 21
-58.941746170969921
  0
TEXT
  8
0
  6
CONTINUOUS
 62
     7
 10
-21.134975398380501
 20
-59.139527420823008
 11
-21.134975743700476
 21
-51.239527420823009
 40
 2
 41
 0.8
  1
13.3
 50
 90.000004039712707
 72
  5
  0
LINE
  8
0
  6
CONTINUOUS
 62
     7
 10
-9.7900581359863281
 20
-57.039535856868376
 11
-16.134967803955078
 21
-57.039535856868376
  0
LINE
  8
0
  6
CONTINUOUS
 62
     7
 10
-15.174976348876953
 20
-48.539528227473852
 11
-15.174976348876953
 21
-57.039535856868376
  0
LINE
  8
0
  6
CONTINUOUS
 62
     7
 10
-15.174976348876953
 20
-48.539528227473852
 11
-15.951433484184516
 21
-51.437305706341057
  0
LINE
  8
0
  6
CONTINUOUS
 62
     7
 10
-15.174976348876953
 20
-48.539528227473852
 11
-14.39851921356939
 21
-51.437305706341057
  0
LINE
  8
0
  6
CONTINUOUS
 62
     7
 10
-15.174976348876953
 20
-57.039535856868376
 11
-14.39851921356939
 21
-54.141758378001171
  0
LINE
  8
0
  6
CONTINUOUS
 62
     7
 10
-15.174976348876953
 20
-57.039535856868376
 11
-15.951433484184516
 21
-54.141758378001171
  0
TEXT
  8
0
  6
CONTINUOUS
 62
     7
 10
-16.134983027775032
 20
-55.68953047258082
 11
-16.134983281301089
 21
-49.889530472580816
 40
 2
 41
 0.8
  1
8.5
 50
 90.000004039712707
 72
  5
  0
LINE
  8
0
  6
CONTINUOUS
 62
     7
 10
-7.4743843078613281
 20
-24.539516783382055
 11
-21.134952545166001
 21
-24.539516783382055
  0
LINE
  8
0
  6
CONTINUOUS
 62
     7
 10
-7.5865669250488281
 20
 60.460471772526155
 11
-21.134952545166001
 21
 60.460471772526155
  0
LINE
  8
0
  6
CONTINUOUS
 62
     7
 10
-20.174953460693374
 20
-24.539516783382055
 11
-20.174953460693374
 21
 60.460471772526155
  0
LINE
  8
0
  6
CONTINUOUS
 62
     7
 10
-20.174953460693374
 20
-24.539516783382055
 11
-19.39849632538581
 21
-21.64173930451485
  0
LINE
  8
0
  6
CONTINUOUS
 62
     7
 10
-20.174953460693374
 20
-24.539516783382055
 11
-20.951410596000937
 21
-21.64173930451485
  0
LINE
  8
0
  6
CONTINUOUS
 62
     7
 10
-20.174953460693374
 20
 60.460471772526155
 11
-20.951410596000937
 21
 57.56269429365895
  0
LINE
  8
0
  6
CONTINUOUS
 62
     7
 10
-20.174953460693374
 20
 60.460471772526155
 11
-19.39849632538581
 21
 57.56269429365895
  0
TEXT
  8
0
  6
CONTINUOUS
 62
     7
 10
-21.134952510196907
 20
 16.110476393874265
 11
-21.134952671929046
 21
 19.810476393874261
 40
 2
 41
 0.8
  1
85
 50
 90.000004039712707
 72
  5
  0
LINE
  8
0
  6
CONTINUOUS
 62
     7
 10
-10.054523468017578
 20
 47.960471772526155
 11
-16.134960174560547
 21
 47.960471772526155
  0
LINE
  8
0
  6
CONTINUOUS
 62
     7
 10
-15.174961090087891
 20
 60.460471772526155
 11
-15.174961090087891
 21
 47.960471772526155
  0
LINE
  8
0
  6
CONTINUOUS
 62
     7
 10
-15.174961090087891
 20
 60.460471772526155
 11
-15.951418225395454
 21
 57.56269429365895
  0
LINE
  8
0
  6
CONTINUOUS
 62
     7
 10
-15.174961090087891
 20
 60.460471772526155
 11
-14.398503954780328
 21
 57.56269429365895
  0
LINE
  8
0
  6
CONTINUOUS
 62
     7
 10
-15.174961090087891
 20
 47.960471772526155
 11
-14.398503954780328
 21
 50.85824925139336
  0
LINE
  8
0
  6
CONTINUOUS
 62
     7
 10
-15.174961090087891
 20
 47.960471772526155
 11
-15.951418225395454
 21
 50.85824925139336
  0
TEXT
  8
0
  6
CONTINUOUS
 62
     7
 10
-16.134960139591438
 20
 50.260470290358633
 11
-16.134960484911414
 21
 58.160470290358631
 40
 2
 41
 0.8
  1
12.5
 50
 90.000004039712707
 72
  5
  0
LINE
  8
0
  6
CONTINUOUS
 62
     7
 10
-10.054523468017578
 20
 32.960475587223421
 11
-16.134960174560547
 21
 32.960475587223421
  0
LINE
  8
0
  6
CONTINUOUS
 62
     7
 10
-15.174961090087891
 20
 47.960471772526155
 11
-15.174961090087891
 21
 32.960475587223421
  0
LINE
  8
0
  6
CONTINUOUS
 62
     7
 10
-15.174961090087891
 20
 47.960471772526155
 11
-15.951418225395454
 21
 45.06269429365895
  0
LINE
  8
0
  6
CONTINUOUS
 62
     7
 10
-15.174961090087891
 20
 47.960471772526155
 11
-14.398503954780328
 21
 45.06269429365895
  0
LINE
  8
0
  6
CONTINUOUS
 62
     7
 10
-15.174961090087891
 20
 32.960475587223421
 11
-14.398503954780328
 21
 35.858253066090626
  0
LINE
  8
0
  6
CONTINUOUS
 62
     7
 10
-15.174961090087891
 20
 32.960475587223421
 11
-15.951418225395454
 21
 35.858253066090626
  0
TEXT
  8
0
  6
CONTINUOUS
 62
     7
 10
-16.134960139591438
 20
 38.610472579176992
 11
-16.134960301323577
 21
 42.310472579176995
 40
 2
 41
 0.8
  1
15
 50
 90.000004039712707
 72
  5
  0
LINE
  8
0
  6
CONTINUOUS
 62
     7
 10
-10.054523468017578
 20
 2.9604736798747879
 11
-16.134960174560547
 21
 2.9604736798747879
  0
LINE
  8
0
  6
CONTINUOUS
 62
     7
 10
-15.174961090087891
 20
 32.960475587223421
 11
-15.174961090087891
 21
 2.9604736798747879
  0
LINE
  8
0
  6
CONTINUOUS
 62
     7
 10
-15.174961090087891
 20
 32.960475587223421
 11
-15.951418225395454
 21
 30.062698108356216
  0
LINE
  8
0
  6
CONTINUOUS
 62
     7
 10
-15.174961090087891
 20
 32.960475587223421
 11
-14.398503954780328
 21
 30.062698108356216
  0
LINE
  8
0
  6
CONTINUOUS
 62
     7
 10
-15.174961090087891
 20
 2.9604736798747879
 11
-14.398503954780328
 21
 5.858251158741993
  0
LINE
  8
0
  6
CONTINUOUS
 62
     7
 10
-15.174961090087891
 20
 2.9604736798747879
 11
-15.951418225395454
 21
 5.858251158741993
  0
TEXT
  8
0
  6
CONTINUOUS
 62
     7
 10
-16.134960139591438
 20
 16.110476393874265
 11
-16.134960301323577
 21
 19.810476393874261
 40
 2
 41
 0.8
  1
30
 50
 90.000004039712707
 72
  5
  0
LINE
  8
0
  6
CONTINUOUS
 62
     7
 10
-10.054523468017578
 20
-12.039530611659639
 11
-16.134960174560547
 21
-12.039530611659639
  0
LINE
  8
0
  6
CONTINUOUS
 62
     7
 10
-15.174961090087891
 20
 2.9604736798747879
 11
-15.174961090087891
 21
-12.039530611659639
  0
LINE
  8
0
  6
CONTINUOUS
 62
     7
 10
-15.174961090087891
 20
 2.9604736798747879
 11
-15.951418225395454
 21
 0.0626962010075824
  0
LINE
  8
0
  6
CONTINUOUS
 62
     7
 10
-15.174961090087891
 20
 2.9604736798747879
 11
-14.398503954780328
 21
 0.0626962010075824
  0
LINE
  8
0
  6
CONTINUOUS
 62
     7
 10
-15.174961090087891
 20
-12.039530611659639
 11
-14.398503954780328
 21
-9.1417531327924344
  0
LINE
  8
0
  6
CONTINUOUS
 62
     7
 10
-15.174961090087891
 20
-12.039530611659639
 11
-15.951418225395454
 21
-9.1417531327924344
  0
TEXT
  8
0
  6
CONTINUOUS
 62
     7
 10
-16.134960139591438
 20
-6.3895283744973188
 11
-16.134960301323577
 21
-2.6895283744973231
 40
 2
 41
 0.8
  1
15
 50
 90.000004039712707
 72
  5
  0
LINE
  8
0
  6
CONTINUOUS
 62
     7
 10
-15.174961090087891
 20
-12.039530611659639
 11
-15.174961090087891
 21
-24.539516783382055
  0
LINE
  8
0
  6
CONTINUOUS
 62
     7
 10
-15.174961090087891
 20
-12.039530611659639
 11
-15.951418225395454
 21
-14.937308090526844
  0
LINE
  8
0
  6
CONTINUOUS
 62
     7
 10
-15.174961090087891
 20
-12.039530611659639
 11
-14.398503954780328
 21
-14.937308090526844
  0
LINE
  8
0
  6
CONTINUOUS
 62
     7
 10
-15.174961090087891
 20
-24.539516783382055
 11
-14.398503954780328
 21
-21.64173930451485
  0
LINE
  8
0
  6
CONTINUOUS
 62
     7
 10
-15.174961090087891
 20
-24.539516783382055
 11
-15.951418225395454
 21
-21.64173930451485
  0
TEXT
  8
0
  6
CONTINUOUS
 62
     7
 10
-16.134960139591438
 20
-22.239523987595454
 11
-16.134960484911414
 21
-14.339523987595463
 40
 2
 41
 0.8
  1
12.5
 50
 90.000004039712707
 72
  5
  0
LINE
  8
0
  6
CONTINUOUS
 62
     7
 10
-2.9871940612792969
 20
 55.460471772526155
 11
 15.585002899169922
 21
 55.460471772526155
  0
LINE
  8
0
  6
CONTINUOUS
 62
     7
 10
 6.6250038146972656
 20
 60.460471772526155
 11
 15.585002899169922
 21
 60.460471772526155
  0
LINE
  8
0
  6
CONTINUOUS
 62
     7
 10
 14.625003814697266
 20
 55.460471772526155
 11
 14.625003814697266
 21
 60.460471772526155
  0
LINE
  8
0
  6
CONTINUOUS
 62
     7
 10
 14.625003814697266
 20
 55.460471772526155
 11
 15.401460950004829
 21
 58.35824925139336
  0
LINE
  8
0
  6
CONTINUOUS
 62
     7
 10
 14.625003814697266
 20
 55.460471772526155
 11
 13.848546679389703
 21
 58.35824925139336
  0
LINE
  8
0
  6
CONTINUOUS
 62
     7
 10
 14.625003814697266
 20
 60.460471772526155
 11
 13.848546679389703
 21
 57.56269429365895
  0
LINE
  8
0
  6
CONTINUOUS
 62
     7
 10
 14.625003814697266
 20
 60.460471772526155
 11
 15.401460950004829
 21
 57.56269429365895
  0
TEXT
  8
0
  6
CONTINUOUS
 62
     7
 10
 13.66500476519372
 20
 57.160471816237539
 11
 13.665004695255497
 21
 58.760471816237541
 40
 2
 41
 0.8
  1
5
 50
 90.000004039712707
 72
  5
  0
LINE
  8
0
  6
CONTINUOUS
 62
     7
 10
-1.7251701354980469
 20
-19.539526320125219
 11
 15.585002899169922
 21
-19.539526320125219
  0
LINE
  8
0
  6
CONTINUOUS
 62
     7
 10
 14.625003814697266
 20
-19.539526320125219
 11
 14.625003814697266
 21
 55.460471772526155
  0
LINE
  8
0
  6
CONTINUOUS
 62
     7
 10
 14.625003814697266
 20
-19.539526320125219
 11
 15.401460950004829
 21
-16.641748841258014
  0
LINE
  8
0
  6
CONTINUOUS
 62
     7
 10
 14.625003814697266
 20
-19.539526320125219
 11
 13.848546679389703
 21
-16.641748841258014
  0
LINE
  8
0
  6
CONTINUOUS
 62
     7
 10
 14.625003814697266
 20
 55.460471772526155
 11
 13.848546679389703
 21
 52.56269429365895
  0
LINE
  8
0
  6
CONTINUOUS
 62
     7
 10
 14.625003814697266
 20
 55.460471772526155
 11
 15.401460950004829
 21
 52.56269429365895
  0
TEXT
  8
0
  6
CONTINUOUS
 62
     7
 10
 13.66500476519372
 20
 16.110472579176999
 11
 13.665004603461577
 21
 19.810472579176995
 40
 2
 41
 0.8
  1
75
 50
 90.000004039712707
 72
  5
  0
LINE
  8
0
  6
CONTINUOUS
 62
     7
 10
 6.6250038146972656
 20
-24.539516783382055
 11
 15.585002899169922
 21
-24.539516783382055
  0
LINE
  8
0
  6
CONTINUOUS
 62
     7
 10
 14.625003814697266
 20
-24.539516783382055
 11
 14.625003814697266
 21
-19.539526320125219
  0
LINE
  8
0
  6
CONTINUOUS
 62
     7
 10
 14.625003814697266
 20
-24.539516783382055
 11
 15.401460950004829
 21
-21.64173930451485
  0
LINE
  8
0
  6
CONTINUOUS
 62
     7
 10
 14.625003814697266
 20
-24.539516783382055
 11
 13.848546679389703
 21
-21.64173930451485
  0
LINE
  8
0
  6
CONTINUOUS
 62
     7
 10
 14.625003814697266
 20
-19.539526320125219
 11
 13.848546679389703
 21
-22.437303798992424
  0
LINE
  8
0
  6
CONTINUOUS
 62
     7
 10
 14.625003814697266
 20
-19.539526320125219
 11
 15.401460950004829
 21
-22.437303798992424
  0
TEXT
  8
0
  6
CONTINUOUS
 62
     7
 10
 13.66500476519372
 20
-22.839524845902346
 11
 13.665004695255497
 21
-21.239524845902348
 40
 2
 41
 0.8
  1
5
 50
 90.000004039712707
 72
  5
  0
LINE
  8
0
  6
CONTINUOUS
 62
     7
 10
 0.1249961853027344
 20
-16.662920988227476
 11
 0.1249961853027344
 21
-30.499522543574926
  0
LINE
  8
0
  6
CONTINUOUS
 62
     7
 10
-4.8749961853027344
 20
-26.478638983394262
 11
-4.8749961853027344
 21
-30.499522543574926
  0
LINE
  8
0
  6
CONTINUOUS
 62
     7
 10
 0.1249961853027344
 20
-29.539520598079321
 11
-4.8749961853027344
 21
-29.539520598079321
  0
LINE
  8
0
  6
CONTINUOUS
 62
     7
 10
 0.1249961853027344
 20
-29.539520598079321
 11
-2.7727812935644707
 21
-28.763063462771758
  0
LINE
  8
0
  6
CONTINUOUS
 62
     7
 10
 0.1249961853027344
 20
-29.539520598079321
 11
-2.7727812935644707
 21
-30.315977733386884
  0
LINE
  8
0
  6
CONTINUOUS
 62
     7
 10
-4.8749961853027344
 20
-29.539520598079321
 11
-1.9772187064355293
 21
-30.315977733386884
  0
LINE
  8
0
  6
CONTINUOUS
 62
     7
 10
-4.8749961853027344
 20
-29.539520598079321
 11
-1.9772187064355293
 21
-28.763063462771758
  0
TEXT
  8
0
  6
CONTINUOUS
 62
     7
 10
-3.1750038146972654
 20
-28.579517698909392
 11
-1.5750038146972656
 21
-28.579517698909392
 40
 2
 41
 0.8
  1
5
 50
 0
 72
  5
  0
LINE
  8
0
  6
CONTINUOUS
 62
     7
 10
-4.8749961853027344
 20
 63.152770661686311
 11
-4.8749961853027344
 21
 68.920470856998804
  0
LINE
  8
0
  6
CONTINUOUS
 62
     7
 10
 4.6250038146972656
 20
 63.152770661686311
 11
 4.6250038146972656
 21
 68.920470856998804
  0
LINE
  8
0
  6
CONTINUOUS
 62
     7
 10
-4.8749961853027344
 20
 67.960471772526148
 11
 4.6250038146972656
 21
 67.960471772526148
  0
LINE
  8
0
  6
CONTINUOUS
 62
     7
 10
-4.8749961853027344
 20
 67.960471772526148
 11
-1.9772187064355293
 21
 67.184014637218581
  0
LINE
  8
0
  6
CONTINUOUS
 62
     7
 10
-4.8749961853027344
 20
 67.960471772526148
 11
-1.9772187064355293
 21
 68.736928907833715
  0
LINE
  8
0
  6
CONTINUOUS
 62
     7
 10
 4.6250038146972656
 20
 67.960471772526148
 11
 1.7272263358300606
 21
 68.736928907833715
  0
LINE
  8
0
  6
CONTINUOUS
 62
     7
 10
 4.6250038146972656
 20
 67.960471772526148
 11
 1.7272263358300606
 21
 67.184014637218581
  0
TEXT
  8
0
  6
CONTINUOUS
 62
     7
 10
-3.0249946594238279
 20
 68.920470856998804
 11
 2.7750053405761728
 21
 68.920470856998804
 40
 2
 41
 0.8
  1
9.5
 50
 0
 72
  5
  0
ENDSEC
  0
EOF
