  0
SECTION
  2
HEADER
  9
$INSBASE
 10
0.0
20
0.0
  9
$REGENMODE
 70
     1
  9
$DRAGMODE
 70
     1
  9
$DIMTAD
 70
     1
  9
$EXTMIN
 10
-210.000000
 20
-148.500000
 30
 0.0
  9
$EXTMAX
 10
210.000000
 20
148.500000
 30
 0.0
  9
$LUPREC
 70
    3
  9
$AUPREC
 70
    3
  9
$LTSCALE
 40
26.250000
  0
ENDSEC
  0
SECTION
  2
TABLES
  0
TABLE
  2
LTYPE
 70
     6
  0
LTYPE
  2
CONTINUOUS
 70
    64
  3
SOLID
 72
    65
 73
     0
 40
0.0
  0
LTYPE
  2
DASHED2
 70
    64
  3
_ _ _ _ _ _ _ _ _ _ _ _ _ _ _ _ _ _ _ _ _ _ 
 72
    65
 73
     2
 40
0.5
 49
0.25
 49
-0.25
  0
LTYPE
  2
DASHED
 70
    64
  3
__ __ __ __ __ __ __ __ __ __ __ __ __ __ __
 72
    65
 73
     2
 40
0.75
 49
0.5
 49
-0.25
  0
LTYPE
  2
DASHEDX2
 70
    64
  3
____  ____  ____  ____  ____  ____  ____  __
 72
    65
 73
     2
 40
1.5
 49
1.0
 49
-0.5
  0
LTYPE
  2
DOT
 70
    64
  3
............................................
 72
    65
 73
     2
 40
0.25
 49
0
 49
-0.25
  0
LTYPE
  2
DASHDOT
 70
    64
  3
__ . __ . __ . __ . __ . __ . __ . __ . __ .
 72
    65
 73
     4
 40
1.0
 49
0.5
 49
-0.25
 49
0.0
 49
-0.25
  0
LTYPE
  2
CENTER
 70
    64
  3
____ _ ____ _ ____ _ ____ _ ____ _ ____ _ __
 72
    65
 73
     4
 40
2.0
 49
1.25
 49
-0.25
 49
0.25
 49
-0.25
  0
LTYPE
  2
DIVIDE
 70
    64
  3
__ . . __ . . __ . . __ . . __ . . __ . . __
 72
    65
 73
     6
 40
1.25
 49
0.5
 49
-0.25
 49
0.0
 49
-0.25
 49
0.0
 49
-0.25
  0
LTYPE
  2
PHANTOM2
 70
    64
  3
___ _ _ ___ _ _ ___ _ _ ___ _ _ ___ _ _ ___ 
 72
    65
 73
     6
 40
1.25
 49
0.625
 49
-0.125
 49
0.125
 49
-0.125
 49
0.125
 49
-0.125
  0
LTYPE
  2
DOTX2
 70
    64
  3
. . . . . . . . . . . . . . . . . . . . . . 
 72
    65
 73
     2
 40
0.5
 49
0
 49
-0.5
  0
ENDTAB
  0
TABLE
  2
LAYER
 70
   255
  0
LAYER
  2
0
 70
    64
 62
     7
  6
CONTINUOUS
  0
LAYER
  2
1
 70
    64
 62
     7
  6
CONTINUOUS
  0
LAYER
  2
2
 70
    64
 62
     7
  6
CONTINUOUS
  0
LAYER
  2
3
 70
    64
 62
     7
  6
CONTINUOUS
  0
LAYER
  2
4
 70
    64
 62
     7
  6
CONTINUOUS
  0
LAYER
  2
5
 70
    64
 62
     7
  6
CONTINUOUS
  0
LAYER
  2
6
 70
    64
 62
     7
  6
CONTINUOUS
  0
LAYER
  2
7
 70
    64
 62
     7
  6
CONTINUOUS
  0
LAYER
  2
8
 70
    64
 62
     7
  6
CONTINUOUS
  0
LAYER
  2
9
 70
    64
 62
     7
  6
CONTINUOUS
  0
LAYER
  2
10
 70
    64
 62
     7
  6
CONTINUOUS
  0
LAYER
  2
11
 70
    64
 62
     7
  6
CONTINUOUS
  0
LAYER
  2
12
 70
    64
 62
     7
  6
CONTINUOUS
  0
LAYER
  2
13
 70
    64
 62
     7
  6
CONTINUOUS
  0
LAYER
  2
14
 70
    64
 62
     7
  6
CONTINUOUS
  0
LAYER
  2
15
 70
    64
 62
     7
  6
CONTINUOUS
  0
LAYER
  2
16
 70
    64
 62
     7
  6
CONTINUOUS
  0
LAYER
  2
17
 70
    64
 62
     7
  6
CONTINUOUS
  0
LAYER
  2
18
 70
    64
 62
     7
  6
CONTINUOUS
  0
LAYER
  2
19
 70
    64
 62
     7
  6
CONTINUOUS
  0
LAYER
  2
20
 70
    64
 62
     7
  6
CONTINUOUS
  0
LAYER
  2
21
 70
    64
 62
     7
  6
CONTINUOUS
  0
LAYER
  2
22
 70
    64
 62
     7
  6
CONTINUOUS
  0
LAYER
  2
23
 70
    64
 62
     7
  6
CONTINUOUS
  0
LAYER
  2
24
 70
    64
 62
     7
  6
CONTINUOUS
  0
LAYER
  2
25
 70
    64
 62
     7
  6
CONTINUOUS
  0
LAYER
  2
26
 70
    64
 62
     7
  6
CONTINUOUS
  0
LAYER
  2
27
 70
    64
 62
     7
  6
CONTINUOUS
  0
LAYER
  2
28
 70
    64
 62
     7
  6
CONTINUOUS
  0
LAYER
  2
29
 70
    64
 62
     7
  6
CONTINUOUS
  0
LAYER
  2
30
 70
    64
 62
     7
  6
CONTINUOUS
  0
LAYER
  2
31
 70
    64
 62
     7
  6
CONTINUOUS
  0
LAYER
  2
32
 70
    64
 62
     7
  6
CONTINUOUS
  0
LAYER
  2
33
 70
    64
 62
     7
  6
CONTINUOUS
  0
LAYER
  2
34
 70
    64
 62
     7
  6
CONTINUOUS
  0
LAYER
  2
35
 70
    64
 62
     7
  6
CONTINUOUS
  0
LAYER
  2
36
 70
    64
 62
     7
  6
CONTINUOUS
  0
LAYER
  2
37
 70
    64
 62
     7
  6
CONTINUOUS
  0
LAYER
  2
38
 70
    64
 62
     7
  6
CONTINUOUS
  0
LAYER
  2
39
 70
    64
 62
     7
  6
CONTINUOUS
  0
LAYER
  2
40
 70
    64
 62
     7
  6
CONTINUOUS
  0
LAYER
  2
41
 70
    64
 62
     7
  6
CONTINUOUS
  0
LAYER
  2
42
 70
    64
 62
     7
  6
CONTINUOUS
  0
LAYER
  2
43
 70
    64
 62
     7
  6
CONTINUOUS
  0
LAYER
  2
44
 70
    64
 62
     7
  6
CONTINUOUS
  0
LAYER
  2
45
 70
    64
 62
     7
  6
CONTINUOUS
  0
LAYER
  2
46
 70
    64
 62
     7
  6
CONTINUOUS
  0
LAYER
  2
47
 70
    64
 62
     7
  6
CONTINUOUS
  0
LAYER
  2
48
 70
    64
 62
     7
  6
CONTINUOUS
  0
LAYER
  2
49
 70
    64
 62
     7
  6
CONTINUOUS
  0
LAYER
  2
50
 70
    64
 62
     7
  6
CONTINUOUS
  0
LAYER
  2
51
 70
    64
 62
     7
  6
CONTINUOUS
  0
LAYER
  2
52
 70
    64
 62
     7
  6
CONTINUOUS
  0
LAYER
  2
53
 70
    64
 62
     7
  6
CONTINUOUS
  0
LAYER
  2
54
 70
    64
 62
     7
  6
CONTINUOUS
  0
LAYER
  2
55
 70
    64
 62
     7
  6
CONTINUOUS
  0
LAYER
  2
56
 70
    64
 62
     7
  6
CONTINUOUS
  0
LAYER
  2
57
 70
    64
 62
     7
  6
CONTINUOUS
  0
LAYER
  2
58
 70
    64
 62
     7
  6
CONTINUOUS
  0
LAYER
  2
59
 70
    64
 62
     7
  6
CONTINUOUS
  0
LAYER
  2
60
 70
    64
 62
     7
  6
CONTINUOUS
  0
LAYER
  2
61
 70
    64
 62
     7
  6
CONTINUOUS
  0
LAYER
  2
62
 70
    64
 62
     7
  6
CONTINUOUS
  0
LAYER
  2
63
 70
    64
 62
     7
  6
CONTINUOUS
  0
LAYER
  2
64
 70
    64
 62
     7
  6
CONTINUOUS
  0
LAYER
  2
65
 70
    64
 62
     7
  6
CONTINUOUS
  0
LAYER
  2
66
 70
    64
 62
     7
  6
CONTINUOUS
  0
LAYER
  2
67
 70
    64
 62
     7
  6
CONTINUOUS
  0
LAYER
  2
68
 70
    64
 62
     7
  6
CONTINUOUS
  0
LAYER
  2
69
 70
    64
 62
     7
  6
CONTINUOUS
  0
LAYER
  2
70
 70
    64
 62
     7
  6
CONTINUOUS
  0
LAYER
  2
71
 70
    64
 62
     7
  6
CONTINUOUS
  0
LAYER
  2
72
 70
    64
 62
     7
  6
CONTINUOUS
  0
LAYER
  2
73
 70
    64
 62
     7
  6
CONTINUOUS
  0
LAYER
  2
74
 70
    64
 62
     7
  6
CONTINUOUS
  0
LAYER
  2
75
 70
    64
 62
     7
  6
CONTINUOUS
  0
LAYER
  2
76
 70
    64
 62
     7
  6
CONTINUOUS
  0
LAYER
  2
77
 70
    64
 62
     7
  6
CONTINUOUS
  0
LAYER
  2
78
 70
    64
 62
     7
  6
CONTINUOUS
  0
LAYER
  2
79
 70
    64
 62
     7
  6
CONTINUOUS
  0
LAYER
  2
80
 70
    64
 62
     7
  6
CONTINUOUS
  0
LAYER
  2
81
 70
    64
 62
     7
  6
CONTINUOUS
  0
LAYER
  2
82
 70
    64
 62
     7
  6
CONTINUOUS
  0
LAYER
  2
83
 70
    64
 62
     7
  6
CONTINUOUS
  0
LAYER
  2
84
 70
    64
 62
     7
  6
CONTINUOUS
  0
LAYER
  2
85
 70
    64
 62
     7
  6
CONTINUOUS
  0
LAYER
  2
86
 70
    64
 62
     7
  6
CONTINUOUS
  0
LAYER
  2
87
 70
    64
 62
     7
  6
CONTINUOUS
  0
LAYER
  2
88
 70
    64
 62
     7
  6
CONTINUOUS
  0
LAYER
  2
89
 70
    64
 62
     7
  6
CONTINUOUS
  0
LAYER
  2
90
 70
    64
 62
     7
  6
CONTINUOUS
  0
LAYER
  2
91
 70
    64
 62
     7
  6
CONTINUOUS
  0
LAYER
  2
92
 70
    64
 62
     7
  6
CONTINUOUS
  0
LAYER
  2
93
 70
    64
 62
     7
  6
CONTINUOUS
  0
LAYER
  2
94
 70
    64
 62
     7
  6
CONTINUOUS
  0
LAYER
  2
95
 70
    64
 62
     7
  6
CONTINUOUS
  0
LAYER
  2
96
 70
    64
 62
     7
  6
CONTINUOUS
  0
LAYER
  2
97
 70
    64
 62
     7
  6
CONTINUOUS
  0
LAYER
  2
98
 70
    64
 62
     7
  6
CONTINUOUS
  0
LAYER
  2
99
 70
    64
 62
     7
  6
CONTINUOUS
  0
LAYER
  2
100
 70
    64
 62
     7
  6
CONTINUOUS
  0
LAYER
  2
101
 70
    64
 62
     7
  6
CONTINUOUS
  0
LAYER
  2
102
 70
    64
 62
     7
  6
CONTINUOUS
  0
LAYER
  2
103
 70
    64
 62
     7
  6
CONTINUOUS
  0
LAYER
  2
104
 70
    64
 62
     7
  6
CONTINUOUS
  0
LAYER
  2
105
 70
    64
 62
     7
  6
CONTINUOUS
  0
LAYER
  2
106
 70
    64
 62
     7
  6
CONTINUOUS
  0
LAYER
  2
107
 70
    64
 62
     7
  6
CONTINUOUS
  0
LAYER
  2
108
 70
    64
 62
     7
  6
CONTINUOUS
  0
LAYER
  2
109
 70
    64
 62
     7
  6
CONTINUOUS
  0
LAYER
  2
110
 70
    64
 62
     7
  6
CONTINUOUS
  0
LAYER
  2
111
 70
    64
 62
     7
  6
CONTINUOUS
  0
LAYER
  2
112
 70
    64
 62
     7
  6
CONTINUOUS
  0
LAYER
  2
113
 70
    64
 62
     7
  6
CONTINUOUS
  0
LAYER
  2
114
 70
    64
 62
     7
  6
CONTINUOUS
  0
LAYER
  2
115
 70
    64
 62
     7
  6
CONTINUOUS
  0
LAYER
  2
116
 70
    64
 62
     7
  6
CONTINUOUS
  0
LAYER
  2
117
 70
    64
 62
     7
  6
CONTINUOUS
  0
LAYER
  2
118
 70
    64
 62
     7
  6
CONTINUOUS
  0
LAYER
  2
119
 70
    64
 62
     7
  6
CONTINUOUS
  0
LAYER
  2
120
 70
    64
 62
     7
  6
CONTINUOUS
  0
LAYER
  2
121
 70
    64
 62
     7
  6
CONTINUOUS
  0
LAYER
  2
122
 70
    64
 62
     7
  6
CONTINUOUS
  0
LAYER
  2
123
 70
    64
 62
     7
  6
CONTINUOUS
  0
LAYER
  2
124
 70
    64
 62
     7
  6
CONTINUOUS
  0
LAYER
  2
125
 70
    64
 62
     7
  6
CONTINUOUS
  0
LAYER
  2
126
 70
    64
 62
     7
  6
CONTINUOUS
  0
LAYER
  2
127
 70
    64
 62
     7
  6
CONTINUOUS
  0
LAYER
  2
128
 70
    64
 62
     7
  6
CONTINUOUS
  0
LAYER
  2
129
 70
    64
 62
     7
  6
CONTINUOUS
  0
LAYER
  2
130
 70
    64
 62
     7
  6
CONTINUOUS
  0
LAYER
  2
131
 70
    64
 62
     7
  6
CONTINUOUS
  0
LAYER
  2
132
 70
    64
 62
     7
  6
CONTINUOUS
  0
LAYER
  2
133
 70
    64
 62
     7
  6
CONTINUOUS
  0
LAYER
  2
134
 70
    64
 62
     7
  6
CONTINUOUS
  0
LAYER
  2
135
 70
    64
 62
     7
  6
CONTINUOUS
  0
LAYER
  2
136
 70
    64
 62
     7
  6
CONTINUOUS
  0
LAYER
  2
137
 70
    64
 62
     7
  6
CONTINUOUS
  0
LAYER
  2
138
 70
    64
 62
     7
  6
CONTINUOUS
  0
LAYER
  2
139
 70
    64
 62
     7
  6
CONTINUOUS
  0
LAYER
  2
140
 70
    64
 62
     7
  6
CONTINUOUS
  0
LAYER
  2
141
 70
    64
 62
     7
  6
CONTINUOUS
  0
LAYER
  2
142
 70
    64
 62
     7
  6
CONTINUOUS
  0
LAYER
  2
143
 70
    64
 62
     7
  6
CONTINUOUS
  0
LAYER
  2
144
 70
    64
 62
     7
  6
CONTINUOUS
  0
LAYER
  2
145
 70
    64
 62
     7
  6
CONTINUOUS
  0
LAYER
  2
146
 70
    64
 62
     7
  6
CONTINUOUS
  0
LAYER
  2
147
 70
    64
 62
     7
  6
CONTINUOUS
  0
LAYER
  2
148
 70
    64
 62
     7
  6
CONTINUOUS
  0
LAYER
  2
149
 70
    64
 62
     7
  6
CONTINUOUS
  0
LAYER
  2
150
 70
    64
 62
     7
  6
CONTINUOUS
  0
LAYER
  2
151
 70
    64
 62
     7
  6
CONTINUOUS
  0
LAYER
  2
152
 70
    64
 62
     7
  6
CONTINUOUS
  0
LAYER
  2
153
 70
    64
 62
     7
  6
CONTINUOUS
  0
LAYER
  2
154
 70
    64
 62
     7
  6
CONTINUOUS
  0
LAYER
  2
155
 70
    64
 62
     7
  6
CONTINUOUS
  0
LAYER
  2
156
 70
    64
 62
     7
  6
CONTINUOUS
  0
LAYER
  2
157
 70
    64
 62
     7
  6
CONTINUOUS
  0
LAYER
  2
158
 70
    64
 62
     7
  6
CONTINUOUS
  0
LAYER
  2
159
 70
    64
 62
     7
  6
CONTINUOUS
  0
LAYER
  2
160
 70
    64
 62
     7
  6
CONTINUOUS
  0
LAYER
  2
161
 70
    64
 62
     7
  6
CONTINUOUS
  0
LAYER
  2
162
 70
    64
 62
     7
  6
CONTINUOUS
  0
LAYER
  2
163
 70
    64
 62
     7
  6
CONTINUOUS
  0
LAYER
  2
164
 70
    64
 62
     7
  6
CONTINUOUS
  0
LAYER
  2
165
 70
    64
 62
     7
  6
CONTINUOUS
  0
LAYER
  2
166
 70
    64
 62
     7
  6
CONTINUOUS
  0
LAYER
  2
167
 70
    64
 62
     7
  6
CONTINUOUS
  0
LAYER
  2
168
 70
    64
 62
     7
  6
CONTINUOUS
  0
LAYER
  2
169
 70
    64
 62
     7
  6
CONTINUOUS
  0
LAYER
  2
170
 70
    64
 62
     7
  6
CONTINUOUS
  0
LAYER
  2
171
 70
    64
 62
     7
  6
CONTINUOUS
  0
LAYER
  2
172
 70
    64
 62
     7
  6
CONTINUOUS
  0
LAYER
  2
173
 70
    64
 62
     7
  6
CONTINUOUS
  0
LAYER
  2
174
 70
    64
 62
     7
  6
CONTINUOUS
  0
LAYER
  2
175
 70
    64
 62
     7
  6
CONTINUOUS
  0
LAYER
  2
176
 70
    64
 62
     7
  6
CONTINUOUS
  0
LAYER
  2
177
 70
    64
 62
     7
  6
CONTINUOUS
  0
LAYER
  2
178
 70
    64
 62
     7
  6
CONTINUOUS
  0
LAYER
  2
179
 70
    64
 62
     7
  6
CONTINUOUS
  0
LAYER
  2
180
 70
    64
 62
     7
  6
CONTINUOUS
  0
LAYER
  2
181
 70
    64
 62
     7
  6
CONTINUOUS
  0
LAYER
  2
182
 70
    64
 62
     7
  6
CONTINUOUS
  0
LAYER
  2
183
 70
    64
 62
     7
  6
CONTINUOUS
  0
LAYER
  2
184
 70
    64
 62
     7
  6
CONTINUOUS
  0
LAYER
  2
185
 70
    64
 62
     7
  6
CONTINUOUS
  0
LAYER
  2
186
 70
    64
 62
     7
  6
CONTINUOUS
  0
LAYER
  2
187
 70
    64
 62
     7
  6
CONTINUOUS
  0
LAYER
  2
188
 70
    64
 62
     7
  6
CONTINUOUS
  0
LAYER
  2
189
 70
    64
 62
     7
  6
CONTINUOUS
  0
LAYER
  2
190
 70
    64
 62
     7
  6
CONTINUOUS
  0
LAYER
  2
191
 70
    64
 62
     7
  6
CONTINUOUS
  0
LAYER
  2
192
 70
    64
 62
     7
  6
CONTINUOUS
  0
LAYER
  2
193
 70
    64
 62
     7
  6
CONTINUOUS
  0
LAYER
  2
194
 70
    64
 62
     7
  6
CONTINUOUS
  0
LAYER
  2
195
 70
    64
 62
     7
  6
CONTINUOUS
  0
LAYER
  2
196
 70
    64
 62
     7
  6
CONTINUOUS
  0
LAYER
  2
197
 70
    64
 62
     7
  6
CONTINUOUS
  0
LAYER
  2
198
 70
    64
 62
     7
  6
CONTINUOUS
  0
LAYER
  2
199
 70
    64
 62
     7
  6
CONTINUOUS
  0
LAYER
  2
200
 70
    64
 62
     7
  6
CONTINUOUS
  0
LAYER
  2
201
 70
    64
 62
     7
  6
CONTINUOUS
  0
LAYER
  2
202
 70
    64
 62
     7
  6
CONTINUOUS
  0
LAYER
  2
203
 70
    64
 62
     7
  6
CONTINUOUS
  0
LAYER
  2
204
 70
    64
 62
     7
  6
CONTINUOUS
  0
LAYER
  2
205
 70
    64
 62
     7
  6
CONTINUOUS
  0
LAYER
  2
206
 70
    64
 62
     7
  6
CONTINUOUS
  0
LAYER
  2
207
 70
    64
 62
     7
  6
CONTINUOUS
  0
LAYER
  2
208
 70
    64
 62
     7
  6
CONTINUOUS
  0
LAYER
  2
209
 70
    64
 62
     7
  6
CONTINUOUS
  0
LAYER
  2
210
 70
    64
 62
     7
  6
CONTINUOUS
  0
LAYER
  2
211
 70
    64
 62
     7
  6
CONTINUOUS
  0
LAYER
  2
212
 70
    64
 62
     7
  6
CONTINUOUS
  0
LAYER
  2
213
 70
    64
 62
     7
  6
CONTINUOUS
  0
LAYER
  2
214
 70
    64
 62
     7
  6
CONTINUOUS
  0
LAYER
  2
215
 70
    64
 62
     7
  6
CONTINUOUS
  0
LAYER
  2
216
 70
    64
 62
     7
  6
CONTINUOUS
  0
LAYER
  2
217
 70
    64
 62
     7
  6
CONTINUOUS
  0
LAYER
  2
218
 70
    64
 62
     7
  6
CONTINUOUS
  0
LAYER
  2
219
 70
    64
 62
     7
  6
CONTINUOUS
  0
LAYER
  2
220
 70
    64
 62
     7
  6
CONTINUOUS
  0
LAYER
  2
221
 70
    64
 62
     7
  6
CONTINUOUS
  0
LAYER
  2
222
 70
    64
 62
     7
  6
CONTINUOUS
  0
LAYER
  2
223
 70
    64
 62
     7
  6
CONTINUOUS
  0
LAYER
  2
224
 70
    64
 62
     7
  6
CONTINUOUS
  0
LAYER
  2
225
 70
    64
 62
     7
  6
CONTINUOUS
  0
LAYER
  2
226
 70
    64
 62
     7
  6
CONTINUOUS
  0
LAYER
  2
227
 70
    64
 62
     7
  6
CONTINUOUS
  0
LAYER
  2
228
 70
    64
 62
     7
  6
CONTINUOUS
  0
LAYER
  2
229
 70
    64
 62
     7
  6
CONTINUOUS
  0
LAYER
  2
230
 70
    64
 62
     7
  6
CONTINUOUS
  0
LAYER
  2
231
 70
    64
 62
     7
  6
CONTINUOUS
  0
LAYER
  2
232
 70
    64
 62
     7
  6
CONTINUOUS
  0
LAYER
  2
233
 70
    64
 62
     7
  6
CONTINUOUS
  0
LAYER
  2
234
 70
    64
 62
     7
  6
CONTINUOUS
  0
LAYER
  2
235
 70
    64
 62
     7
  6
CONTINUOUS
  0
LAYER
  2
236
 70
    64
 62
     7
  6
CONTINUOUS
  0
LAYER
  2
237
 70
    64
 62
     7
  6
CONTINUOUS
  0
LAYER
  2
238
 70
    64
 62
     7
  6
CONTINUOUS
  0
LAYER
  2
239
 70
    64
 62
     7
  6
CONTINUOUS
  0
LAYER
  2
240
 70
    64
 62
     7
  6
CONTINUOUS
  0
LAYER
  2
241
 70
    64
 62
     7
  6
CONTINUOUS
  0
LAYER
  2
242
 70
    64
 62
     7
  6
CONTINUOUS
  0
LAYER
  2
243
 70
    64
 62
     7
  6
CONTINUOUS
  0
LAYER
  2
244
 70
    64
 62
     7
  6
CONTINUOUS
  0
LAYER
  2
245
 70
    64
 62
     7
  6
CONTINUOUS
  0
LAYER
  2
246
 70
    64
 62
     7
  6
CONTINUOUS
  0
LAYER
  2
247
 70
    64
 62
     7
  6
CONTINUOUS
  0
LAYER
  2
248
 70
    64
 62
     7
  6
CONTINUOUS
  0
LAYER
  2
249
 70
    64
 62
     7
  6
CONTINUOUS
  0
LAYER
  2
250
 70
    64
 62
     7
  6
CONTINUOUS
  0
LAYER
  2
251
 70
    64
 62
     7
  6
CONTINUOUS
  0
LAYER
  2
252
 70
    64
 62
     7
  6
CONTINUOUS
  0
LAYER
  2
253
 70
    64
 62
     7
  6
CONTINUOUS
  0
LAYER
  2
254
 70
    64
 62
     7
  6
CONTINUOUS
  0
LAYER
  2
255
 70
    64
 62
     7
  6
CONTINUOUS
  0
ENDTAB
  0
TABLE
  2
STYLE
 70
     2
  0
STYLE
  2
STANDARD
 70
    64
 40
0.0
 41
1.0
 50
0.0
 71
     0
 42
3.000000
  3
TXT
  4
BIGFONT
  0
ENDTAB
  0
ENDSEC
  0
SECTION
  2
ENTITIES
  0
LINE
  8
0
  6
CONTINUOUS
 62
     2
 10
-44.371212005615234
 20
-26.45484733581543
 11
 43.628803253173828
 21
-26.45484733581543
  0
LINE
  8
0
  6
CONTINUOUS
 62
     2
 10
-44.371204376220703
 20
-27.654836654663086
 11
 43.628818511962891
 21
-27.654836654663086
  0
LINE
  8
0
  6
DASHDOT
 62
     2
 10
-52.871227264404297
 20
-39.383140563964844
 11
-52.871227264404297
 21
-46.057834625244141
  0
LINE
  8
0
  6
CONTINUOUS
 62
     2
 10
 45.428821563720703
 20
-42.254833221435547
 11
 57.128803253173828
 21
-42.254833221435547
  0
ARC
  8
0
  6
CONTINUOUS
 62
     2
 10
 45.428821563720703
 20
-41.954830169677734
 40
 0.300000011920929
 50
-179.9999980615126
 51
-90.000000851989171
  0
LINE
  8
0
  6
CONTINUOUS
 62
     2
 10
 57.128803253173828
 20
-42.254833221435547
 11
 57.128803253173828
 21
-43.454837799072266
  0
LINE
  8
0
  6
CONTINUOUS
 62
     2
 10
 57.128803253173828
 20
-43.454837799072266
 11
 45.428836822509766
 21
-43.454837799072266
  0
ARC
  8
0
  6
CONTINUOUS
 62
     2
 10
 45.428836822509766
 20
-41.954830169677734
 40
 1.5
 50
-179.9999980615126
 51
-90.000000851989171
  0
LINE
  8
0
  6
DOT
 62
     2
 10
 54.228824615478516
 20
-43.454837799072266
 11
 54.228824615478516
 21
-42.254833221435547
  0
LINE
  8
0
  6
DOT
 62
     2
 10
 50.028827667236328
 20
-43.454837799072266
 11
 50.028827667236328
 21
-42.254833221435547
  0
LINE
  8
0
  6
CONTINUOUS
 62
     2
 10
-46.171215057373047
 20
-42.254833221435547
 11
-57.871227264404297
 21
-42.254833221435547
  0
ARC
  8
0
  6
CONTINUOUS
 62
     2
 10
-46.171215057373047
 20
-41.954830169677734
 40
 0.300000011920929
 50
-90.000000851989171
 51
 0
  0
LINE
  8
0
  6
CONTINUOUS
 62
     2
 10
-57.871227264404297
 20
-42.254833221435547
 11
-57.871227264404297
 21
-43.454837799072266
  0
LINE
  8
0
  6
CONTINUOUS
 62
     2
 10
-57.871227264404297
 20
-43.454837799072266
 11
-46.171215057373047
 21
-43.454837799072266
  0
ARC
  8
0
  6
CONTINUOUS
 62
     2
 10
-46.171215057373047
 20
-41.954830169677734
 40
 1.5
 50
-90.000000851989171
 51
 0
  0
LINE
  8
0
  6
DOT
 62
     2
 10
-50.771221160888672
 20
-43.454837799072266
 11
-50.771221160888672
 21
-42.254833221435547
  0
LINE
  8
0
  6
DOT
 62
     2
 10
-54.971202850341797
 20
-43.454837799072266
 11
-54.971202850341797
 21
-42.254833221435547
  0
LINE
  8
0
  6
CONTINUOUS
 62
     2
 10
-45.871227264404297
 20
-27.954839706420898
 11
-45.871227264404297
 21
-41.954830169677734
  0
ARC
  8
0
  6
CONTINUOUS
 62
     2
 10
-44.371212005615234
 20
-27.954839706420898
 40
 1.5
 50
 90.000004039712721
 51
-179.9999980615126
  0
LINE
  8
0
  6
CONTINUOUS
 62
     2
 10
-44.671215057373047
 20
-27.954839706420898
 11
-44.671215057373047
 21
-41.954830169677734
  0
ARC
  8
0
  6
CONTINUOUS
 62
     2
 10
-44.371204376220703
 20
-27.954839706420898
 40
 0.300000011920929
 50
 90.000004039712721
 51
-179.9999980615126
  0
LINE
  8
0
  6
CONTINUOUS
 62
     2
 10
 43.928821563720703
 20
-27.954839706420898
 11
 43.928821563720703
 21
-41.954830169677734
  0
ARC
  8
0
  6
CONTINUOUS
 62
     2
 10
 43.628818511962891
 20
-27.954839706420898
 40
 0.300000011920929
 50
 0
 51
 90.000004039712721
  0
LINE
  8
0
  6
CONTINUOUS
 62
     2
 10
 45.128803253173828
 20
-27.954839706420898
 11
 45.128803253173828
 21
-41.954830169677734
  0
ARC
  8
0
  6
CONTINUOUS
 62
     2
 10
 43.628803253173828
 20
-27.954839706420898
 40
 1.5
 50
 0
 51
 90.000004039712721
  0
LINE
  8
0
  6
CONTINUOUS
 62
     7
 10
-59.871227264404297
 20
-42.254833221435547
 11
-70.031200408935547
 21
-42.254833221435547
  0
LINE
  8
0
  6
CONTINUOUS
 62
     7
 10
-69.071208953857422
 20
-51.134838104248047
 11
-69.071208953857422
 21
-43.454837799072266
  0
LINE
  8
0
  6
CONTINUOUS
 62
     7
 10
-69.071208953857422
 20
-43.454837799072266
 11
-69.847666089164989
 21
-46.352615277939471
  0
LINE
  8
0
  6
CONTINUOUS
 62
     7
 10
-69.071208953857422
 20
-43.454837799072266
 11
-68.294751818549855
 21
-46.352615277939471
  0
LINE
  8
0
  6
CONTINUOUS
 62
     7
 10
-69.071208953857422
 20
-43.454837799072266
 11
-69.071208953857422
 21
-42.254833221435547
  0
TEXT
  8
0
  6
CONTINUOUS
 62
     7
 10
-70.031196559269162
 20
-40.654820207753453
 11
-70.03119681279523
 21
-34.854820207753463
 40
 2
 41
 0.8
  1
１．２
 50
 90.000004039712721
 72
  5
  0
LINE
  8
0
  6
CONTINUOUS
 62
     7
 10
-69.071208953857422
 20
-33.254829406738281
 11
-69.071208953857422
 21
-42.254833221435547
  0
LINE
  8
0
  6
CONTINUOUS
 62
     7
 10
-69.071208953857422
 20
-42.254833221435547
 11
-68.294751818549855
 21
-39.357055742568342
  0
LINE
  8
0
  6
CONTINUOUS
 62
     7
 10
-69.071208953857422
 20
-42.254833221435547
 11
-69.847666089164989
 21
-39.357055742568342
  0
LINE
  8
0
  6
CONTINUOUS
 62
     7
 10
 46.866031646728516
 20
-25.254858016967773
 11
 56.588794708251953
 21
-25.254858016967773
  0
LINE
  8
0
  6
CONTINUOUS
 62
     7
 10
 55.628803253173828
 20
-25.254858016967773
 11
 55.628803253173828
 21
-26.454833984375
  0
TEXT
  8
0
  6
CONTINUOUS
 62
     7
 10
 54.668796574275753
 20
-36.354828600087437
 11
 54.668796320749692
 21
-30.554828600087443
 40
 2
 41
 0.8
  1
１．２
 50
 90.000004039712721
 72
  5
  0
LINE
  8
0
  6
CONTINUOUS
 62
     7
 10
 55.628803253173828
 20
-35.454841613769531
 11
 55.628803253173828
 21
-26.454833984375
  0
LINE
  8
0
  6
CONTINUOUS
 62
     7
 10
 55.628803253173828
 20
-26.454833984375
 11
 54.852346117866269
 21
-29.352611463242205
  0
LINE
  8
0
  6
CONTINUOUS
 62
     7
 10
 55.628803253173828
 20
-26.454833984375
 11
 56.405260388481388
 21
-29.352611463242205
  0
LINE
  8
0
  6
CONTINUOUS
 62
     7
 10
 46.866031646728516
 20
-24.054855346679688
 11
 56.588794708251953
 21
-24.054855346679688
  0
LINE
  8
0
  6
CONTINUOUS
 62
     7
 10
 55.628803253173828
 20
-24.054855346679688
 11
 55.628803253173828
 21
-25.254858016967773
  0
TEXT
  8
0
  6
CONTINUOUS
 62
     7
 10
 54.668796574275753
 20
-22.454851869740754
 11
 54.668796320749692
 21
-16.654851869740764
 40
 2
 41
 0.8
  1
１．２
 50
 90.000004039712721
 72
  5
  0
LINE
  8
0
  6
CONTINUOUS
 62
     7
 10
 55.628803253173828
 20
-15.054848670959473
 11
 55.628803253173828
 21
-24.054855346679688
  0
LINE
  8
0
  6
CONTINUOUS
 62
     7
 10
 55.628803253173828
 20
-24.054855346679688
 11
 56.405260388481388
 21
-21.157077867812482
  0
LINE
  8
0
  6
CONTINUOUS
 62
     7
 10
 55.628803253173828
 20
-24.054855346679688
 11
 54.852346117866269
 21
-21.157077867812482
  0
CIRCLE
  8
0
  6
CONTINUOUS
 62
     7
 10
 55.628803253173828
 20
-25.254858016967773
 40
 0.25
  0
TEXT
  8
0
  6
CONTINUOUS
 62
     7
 10
-20.771204376220705
 20
-60.740345001220703
 11
 20.028795623779299
 21
-60.740345001220703
 40
 3.5
 41
 0.8
  1
（断面図）ｈ＝１０３用
 50
 0
 72
  5
  0
LINE
  8
0
  6
DASHDOT
 62
     7
 10
-0.3712043762207031
 20
-18.446392059326172
 11
-0.3712043762207031
 21
-45.735137939453125
  0
LINE
  8
0
  6
CONTINUOUS
 62
     7
 10
-52.871227264404297
 20
-39.383140563964844
 11
-52.871227264404297
 21
-33.359378814697266
  0
LINE
  8
0
  6
CONTINUOUS
 62
     7
 10
-52.871227264404297
 20
-30.204322814941406
 11
-52.871227264404297
 21
-5.4948306083679199
  0
LINE
  8
0
  6
CONTINUOUS
 62
     7
 10
-0.3712043762207031
 20
-18.446392059326172
 11
-0.3712043762207031
 21
-5.4948306083679199
  0
LINE
  8
0
  6
CONTINUOUS
 62
     7
 10
-52.871227264404297
 20
-6.4548335075378418
 11
-0.3712043762207031
 21
-6.4548335075378418
  0
LINE
  8
0
  6
CONTINUOUS
 62
     7
 10
-52.871227264404297
 20
-6.4548335075378418
 11
-49.973449785537092
 21
-7.231290642845404
  0
LINE
  8
0
  6
CONTINUOUS
 62
     7
 10
-52.871227264404297
 20
-6.4548335075378418
 11
-49.973449785537092
 21
-5.6783763722302796
  0
LINE
  8
0
  6
CONTINUOUS
 62
     7
 10
-0.3712043762207031
 20
-6.4548335075378418
 11
-3.2689818550879082
 21
-5.6783763722302796
  0
LINE
  8
0
  6
CONTINUOUS
 62
     7
 10
-0.3712043762207031
 20
-6.4548335075378418
 11
-3.2689818550879082
 21
-7.231290642845404
  0
TEXT
  8
0
  6
CONTINUOUS
 62
     7
 10
-30.571213531494141
 20
-5.4948315620422363
 11
-22.671213531494143
 21
-5.4948315620422363
 40
 2
 41
 0.8
  1
５２．５
 50
 0
 72
  5
  0
LINE
  8
0
  6
CONTINUOUS
 62
     7
 10
 45.128818511962891
 20
-45.454833984375
 11
 45.128818511962891
 21
-54.414848327636719
  0
LINE
  8
0
  6
CONTINUOUS
 62
     2
 10
 43.928806304931641
 20
-28.454845428466797
 11
 43.928806304931641
 21
-25.554811477661133
  0
ARC
  8
0
  6
CONTINUOUS
 62
     2
 10
 43.628803253173828
 20
-25.554811477661133
 40
 0.300000011920929
 50
-0.0000173028443202
 51
 89.999997209523428
  0
LINE
  8
0
  6
CONTINUOUS
 62
     2
 10
 43.628803253173828
 20
-25.254825592041016
 11
 40.128803253173828
 21
-25.254825592041016
  0
LINE
  8
0
  6
CONTINUOUS
 62
     2
 10
 40.128803253173828
 20
-24.054830551147461
 11
 43.628803253173828
 21
-24.054830551147461
  0
LINE
  8
0
  6
CONTINUOUS
 62
     2
 10
 45.128818511962891
 20
-25.554811477661133
 11
 45.128818511962891
 21
-28.454845428466797
  0
ARC
  8
0
  6
CONTINUOUS
 62
     2
 10
 43.628803253173828
 20
-25.554811477661133
 40
 1.5
 50
-0.0000173028443202
 51
 89.999997209523428
  0
ARC
  8
0
  6
CONTINUOUS
 62
     2
 10
 43.628803253173828
 20
-27.954839706420898
 40
 1.5
 50
 78.462625881839145
 51
 89.999997209523428
  0
ARC
  8
0
  6
DOT
 62
     2
 10
 43.628803253173828
 20
-27.954839706420898
 40
 1.5
 50
-0.0000173028443202
 51
 78.462625881839145
  0
ARC
  8
0
  6
CONTINUOUS
 62
     2
 10
 43.628803253173828
 20
-27.954839706420898
 40
 0.300000011920929
 50
-0.0000173028443202
 51
 89.999997209523428
  0
LINE
  8
0
  6
CONTINUOUS
 62
     2
 10
 43.928806304931641
 20
-28.454845428466797
 11
 45.128818511962891
 21
-28.454845428466797
  0
LINE
  8
0
  6
CONTINUOUS
 62
     2
 10
 40.128803253173828
 20
-24.054830551147461
 11
 40.128803253173828
 21
-25.254825592041016
  0
LINE
  8
0
  6
CONTINUOUS
 62
     2
 10
 35.128803253173828
 20
-26.45484733581543
 11
 35.128803253173828
 21
-27.654836654663086
  0
LINE
  8
0
  6
CONTINUOUS
 62
     7
 10
-45.871208190917969
 20
-22.764760971069336
 11
-45.871208190917969
 21
-10.494821548461914
  0
LINE
  8
0
  6
CONTINUOUS
 62
     7
 10
 56.588794708251953
 20
-26.454833984375
 11
 46.866031646728516
 21
-26.454833984375
  0
LINE
  8
0
  6
CONTINUOUS
 62
     7
 10
-35.371204376220703
 20
-10.494821548461914
 11
-35.371204376220703
 21
-30.624906539916992
  0
LINE
  8
0
  6
DOT
 62
     2
 10
-36.921215057373047
 20
-27.654836654663086
 11
-36.921215057373047
 21
-26.45484733581543
  0
LINE
  8
0
  6
DOT
 62
     2
 10
-33.821201324462891
 20
-26.45484733581543
 11
-33.821201324462891
 21
-27.654836654663086
  0
LINE
  8
0
  6
DASHDOT
 62
     2
 10
 52.128803253173828
 20
-39.801647186279297
 11
 52.128803253173828
 21
-45.468307495117188
  0
LINE
  8
0
  6
DASHDOT
 62
     7
 10
-0.3711967468261719
 20
 90.044891357421875
 11
-0.3711967468261719
 21
 34.181854248046875
  0
LINE
  8
0
  6
CONTINUOUS
 62
     2
 10
-45.871189117431641
 20
 88.121940612792969
 11
 45.128818511962891
 21
 88.121940612792969
  0
LINE
  8
0
  6
CONTINUOUS
 62
     2
 10
 45.128818511962891
 20
 88.121940612792969
 11
 45.128818511962891
 21
 39.121944427490234
  0
LINE
  8
0
  6
CONTINUOUS
 62
     2
 10
 45.128818511962891
 20
 39.121944427490234
 11
-45.871189117431641
 21
 39.121944427490234
  0
LINE
  8
0
  6
DASHDOT
 62
     2
 10
-63.222782135009766
 20
 63.621940612792969
 11
 63.222782135009766
 21
 63.621940612792969
  0
LINE
  8
0
  6
DOT
 62
     2
 10
 43.928806304931641
 20
 88.121940612792969
 11
 43.928806304931641
 21
 83.121940612792969
  0
LINE
  8
0
  6
DOT
 62
     2
 10
 43.928806304931641
 20
 69.121940612792969
 11
 43.928806304931641
 21
 58.121944427490234
  0
LINE
  8
0
  6
DOT
 62
     2
 10
 43.928806304931641
 20
 44.121940612792969
 11
 43.928806304931641
 21
 39.121944427490234
  0
LINE
  8
0
  6
CONTINUOUS
 62
     2
 10
-45.871189117431641
 20
 88.121940612792969
 11
-57.871189117431641
 21
 88.121940612792969
  0
LINE
  8
0
  6
CONTINUOUS
 62
     2
 10
-57.871189117431641
 20
 88.121940612792969
 11
-57.871189117431641
 21
 39.121940612792969
  0
LINE
  8
0
  6
CONTINUOUS
 62
     2
 10
-57.871189117431641
 20
 39.121940612792969
 11
-45.871223449707031
 21
 39.121940612792969
  0
LINE
  8
0
  6
DASHDOT
 62
     2
 10
-48.342018127441406
 20
 76.121940612792969
 11
 60.292072296142578
 21
 76.121940612792969
  0
LINE
  8
0
  6
DASHDOT
 62
     2
 10
-48.342018127441406
 20
 51.121940612792969
 11
 63.563129425048828
 21
 51.121940612792969
  0
TEXT
  8
0
  6
CONTINUOUS
 62
     7
 10
-24.901274871826171
 20
 93.621940612792969
 11
-5.501274871826169
 21
 93.621940612792969
 40
 3
 41
 0.8
  1
２－φ３．１
 50
 0
 72
  5
  0
LINE
  8
0
  6
CONTINUOUS
 62
     7
 10
-27.643596649169922
 20
 93.121940612792969
 11
-2.8358879089355469
 21
 93.121940612792969
  0
TEXT
  8
0
  6
CONTINUOUS
 62
     7
 10
-45.4013053894043
 20
 98.621940612792969
 11
-32.801305389404298
 21
 98.621940612792969
 40
 3
 41
 0.8
  1
２－φ４
 50
 0
 72
  5
  0
LINE
  8
0
  6
CONTINUOUS
 62
     7
 10
-47.957740783691406
 20
 98.121940612792969
 11
-32.265468597412109
 21
 98.121940612792969
  0
LINE
  8
0
  6
DASHDOT
 62
     2
 10
-52.871219635009766
 20
 68.766036987304687
 11
-52.871219635009766
 21
 57.772445678710938
  0
LINE
  8
0
  6
CONTINUOUS
 62
     2
 10
-45.871189117431641
 20
 39.121944427490234
 11
-45.871189117431641
 21
 88.121940612792969
  0
LINE
  8
0
  6
DOT
 62
     2
 10
-44.671207427978516
 20
 39.121944427490234
 11
-44.671207427978516
 21
 88.121940612792969
  0
LINE
  8
0
  6
CONTINUOUS
 62
     7
 10
-47.957740783691406
 20
 98.121940612792969
 11
-52.606845855712891
 21
 65.586357116699219
  0
LINE
  8
0
  6
CONTINUOUS
 62
     7
 10
-52.606845855712891
 20
 65.586357116699219
 11
-51.428288113225378
 21
 68.345161504042181
  0
LINE
  8
0
  6
CONTINUOUS
 62
     7
 10
-52.606845855712891
 20
 65.586357116699219
 11
-52.965587104563348
 21
 68.564830671453933
  0
LINE
  8
0
  6
CONTINUOUS
 62
     7
 10
-59.871189117431641
 20
 88.121940612792969
 11
-73.631196975708008
 21
 88.121940612792969
  0
LINE
  8
0
  6
CONTINUOUS
 62
     7
 10
-59.809299468994141
 20
 39.121944427490234
 11
-73.631196975708008
 21
 39.121944427490234
  0
LINE
  8
0
  6
CONTINUOUS
 62
     7
 10
-63.222782135009766
 20
 63.621940612792969
 11
-73.631196975708008
 21
 63.621940612792969
  0
LINE
  8
0
  6
CONTINUOUS
 62
     7
 10
 45.128818511962891
 20
 37.121940612792969
 11
 45.128818511962891
 21
 28.161941528320313
  0
LINE
  8
0
  6
CONTINUOUS
 62
     7
 10
-57.871189117431641
 20
 37.121940612792969
 11
-57.871189117431641
 21
 23.161941528320312
  0
LINE
  8
0
  6
CONTINUOUS
 62
     7
 10
 63.563129425048828
 20
 51.121940612792969
 11
 73.088809967041016
 21
 51.121936798095703
  0
LINE
  8
0
  6
DASHDOT
 62
     2
 10
 52.128818511962891
 20
 68.336875915527344
 11
 52.128818511962891
 21
 58.913784027099609
  0
LINE
  8
0
  6
DASHDOT
 62
     7
 10
-50.912906646728516
 20
 81.121940612792969
 11
 47.689731597900391
 21
 81.121940612792969
  0
LINE
  8
0
  6
DASHDOT
 62
     7
 10
-51.912906646728516
 20
 46.121940612792969
 11
 47.128803253173828
 21
 46.121940612792969
  0
LINE
  8
0
  6
CONTINUOUS
 62
     7
 10
-57.871189117431641
 20
 23.621944427490234
 11
-57.871189117431641
 21
 13.161946296691895
  0
LINE
  8
0
  6
CONTINUOUS
 62
     7
 10
 45.128818511962891
 20
 28.621944427490234
 11
 45.128818511962891
 21
 18.161947250366211
  0
LINE
  8
0
  6
CONTINUOUS
 62
     7
 10
-52.871219635009766
 20
 57.772445678710938
 11
-52.871219635009766
 21
 23.161941528320312
  0
LINE
  8
0
  6
CONTINUOUS
 62
     3
 10
 43.928836822509766
 20
 44.121940612792969
 11
 43.928836822509766
 21
 46.121936798095703
  0
LINE
  8
0
  6
DOT
 62
     3
 10
 43.928836822509766
 20
 46.121936798095703
 11
 43.928836822509766
 21
 56.121936798095703
  0
LINE
  8
0
  6
CONTINUOUS
 62
     3
 10
 43.928836822509766
 20
 56.121936798095703
 11
 43.928836822509766
 21
 58.121944427490234
  0
LINE
  8
0
  6
CONTINUOUS
 62
     3
 10
 45.128818511962891
 20
 56.121936798095703
 11
 41.128833770751953
 21
 56.121936798095703
  0
LINE
  8
0
  6
CONTINUOUS
 62
     3
 10
 40.128803253173828
 20
 55.121932983398437
 11
 40.128803253173828
 21
 47.121936798095703
  0
ARC
  8
0
  6
CONTINUOUS
 62
     3
 10
 41.128833770751953
 20
 55.121932983398437
 40
 1
 50
 89.999997209523428
 51
-179.9999980615126
  0
LINE
  8
0
  6
CONTINUOUS
 62
     3
 10
 41.128833770751953
 20
 46.121936798095703
 11
 45.128818511962891
 21
 46.121936798095703
  0
ARC
  8
0
  6
CONTINUOUS
 62
     3
 10
 41.128833770751953
 20
 47.121936798095703
 40
 1
 50
-179.9999980615126
 51
-90.000000851989171
  0
LINE
  8
0
  6
CONTINUOUS
 62
     3
 10
 45.128818511962891
 20
 58.121944427490234
 11
 38.128787994384766
 21
 58.121944427490234
  0
LINE
  8
0
  6
CONTINUOUS
 62
     3
 10
 35.128787994384766
 20
 55.121944427490234
 11
 35.128787994384766
 21
 47.121944427490234
  0
ARC
  8
0
  6
CONTINUOUS
 62
     3
 10
 38.128787994384766
 20
 55.121944427490234
 40
 3
 50
 89.999997209523428
 51
-179.9999980615126
  0
LINE
  8
0
  6
CONTINUOUS
 62
     3
 10
 38.128772735595703
 20
 44.1219482421875
 11
 45.128818511962891
 21
 44.121940612792969
  0
ARC
  8
0
  6
CONTINUOUS
 62
     3
 10
 38.128772735595703
 20
 47.121944427490234
 40
 3
 50
-179.9999980615126
 51
-90.000028172746326
  0
LINE
  8
0
  6
CONTINUOUS
 62
     3
 10
 43.928836822509766
 20
 69.121940612792969
 11
 43.928836822509766
 21
 71.121932983398438
  0
LINE
  8
0
  6
DOT
 62
     3
 10
 43.928836822509766
 20
 71.121932983398438
 11
 43.928836822509766
 21
 81.121940612792969
  0
LINE
  8
0
  6
CONTINUOUS
 62
     3
 10
 43.928836822509766
 20
 81.121940612792969
 11
 43.928836822509766
 21
 83.121940612792969
  0
LINE
  8
0
  6
CONTINUOUS
 62
     3
 10
 45.128818511962891
 20
 81.121940612792969
 11
 41.128833770751953
 21
 81.121940612792969
  0
LINE
  8
0
  6
CONTINUOUS
 62
     3
 10
 40.128803253173828
 20
 80.121932983398438
 11
 40.128803253173828
 21
 72.121932983398437
  0
ARC
  8
0
  6
CONTINUOUS
 62
     3
 10
 41.128833770751953
 20
 80.121932983398438
 40
 1
 50
 89.999997209523428
 51
-179.9999980615126
  0
LINE
  8
0
  6
CONTINUOUS
 62
     3
 10
 41.128833770751953
 20
 71.121932983398438
 11
 45.128818511962891
 21
 71.121932983398438
  0
ARC
  8
0
  6
CONTINUOUS
 62
     3
 10
 41.128833770751953
 20
 72.121932983398437
 40
 1
 50
-179.9999980615126
 51
-90.000000851989171
  0
LINE
  8
0
  6
CONTINUOUS
 62
     3
 10
 45.128818511962891
 20
 83.121940612792969
 11
 38.128772735595703
 21
 83.121940612792969
  0
LINE
  8
0
  6
CONTINUOUS
 62
     3
 10
 35.128787994384766
 20
 80.121940612792969
 11
 35.128787994384766
 21
 72.1219482421875
  0
ARC
  8
0
  6
CONTINUOUS
 62
     3
 10
 38.128772735595703
 20
 80.121940612792969
 40
 3
 50
 89.999997209523428
 51
-179.9999980615126
  0
LINE
  8
0
  6
CONTINUOUS
 62
     3
 10
 38.128787994384766
 20
 69.121955871582031
 11
 45.128818511962891
 21
 69.121940612792969
  0
ARC
  8
0
  6
CONTINUOUS
 62
     3
 10
 38.128787994384766
 20
 72.1219482421875
 40
 3
 50
-179.9999980615126
 51
-90.000028172746326
  0
TEXT
  8
0
  6
CONTINUOUS
 62
     7
 10
 15.15616683959961
 20
 93.621932983398437
 11
 29.15616683959961
 21
 93.621932983398437
 40
 3
 41
 0.8
  1
２－切抜き
 50
 0
 72
  5
  0
LINE
  8
0
  6
CONTINUOUS
 62
     7
 10
 13.244205474853516
 20
 93.121940612792969
 11
 29.164096832275391
 21
 93.121940612792969
  0
CIRCLE
  8
0
  6
CONTINUOUS
 62
     2
 10
-52.871219635009766
 20
 63.621940612792969
 40
 2
  0
CIRCLE
  8
0
  6
CONTINUOUS
 62
     3
 10
-35.371196746826172
 20
 51.121940612792969
 40
 1.6000000238418579
  0
CIRCLE
  8
0
  6
CONTINUOUS
 62
     3
 10
-35.371196746826172
 20
 76.121940612792969
 40
 1.6000000238418579
  0
LINE
  8
0
  6
DASHDOT
 62
     2
 10
-35.371196746826172
 20
 46.837070465087891
 11
-35.371196746826172
 21
 79.817878723144531
  0
LINE
  8
0
  6
CONTINUOUS
 62
     7
 10
 43.928806304931641
 20
 37.121940612792969
 11
 43.928806304931641
 21
 28.161943435668945
  0
LINE
  8
0
  6
CONTINUOUS
 62
     7
 10
 45.128818511962891
 20
 29.121944427490234
 11
 43.928806304931641
 21
 29.121944427490234
  0
TEXT
  8
0
  6
CONTINUOUS
 62
     7
 10
 46.728827667236331
 20
 30.081943511962891
 11
 52.528827667236328
 21
 30.081943511962891
 40
 2
 41
 0.8
  1
１．２
 50
 0
 72
  5
  0
LINE
  8
0
  6
CONTINUOUS
 62
     7
 10
 54.128818511962891
 20
 29.121944427490234
 11
 45.128818511962891
 21
 29.121944427490234
  0
LINE
  8
0
  6
CONTINUOUS
 62
     7
 10
 45.128818511962891
 20
 29.121944427490234
 11
 48.026595990830096
 21
 28.345487292182671
  0
LINE
  8
0
  6
CONTINUOUS
 62
     7
 10
 45.128818511962891
 20
 29.121944427490234
 11
 48.026595990830096
 21
 29.898401562797797
  0
LINE
  8
0
  6
CONTINUOUS
 62
     7
 10
-27.643596649169922
 20
 93.121940612792969
 11
-34.768451690673828
 21
 77.447944641113281
  0
LINE
  8
0
  6
CONTINUOUS
 62
     7
 10
-34.768451690673828
 20
 77.447944641113281
 11
-32.862444143196029
 21
 79.764652483927662
  0
LINE
  8
0
  6
CONTINUOUS
 62
     7
 10
-34.768451690673828
 20
 77.447944641113281
 11
-34.276154656160372
 21
 80.407276259876085
  0
LINE
  8
0
  6
CONTINUOUS
 62
     7
 10
 29.164096832275391
 20
 93.121940612792969
 11
 36.994205474853516
 21
 78.806182861328125
  0
LINE
  8
0
  6
CONTINUOUS
 62
     7
 10
 36.994205474853516
 20
 78.806182861328125
 11
 36.284872425041954
 21
 81.721117959138198
  0
LINE
  8
0
  6
CONTINUOUS
 62
     7
 10
 36.994205474853516
 20
 78.806182861328125
 11
 34.922437485067775
 21
 80.975924181508745
  0
LINE
  8
0
  6
CONTINUOUS
 62
     2
 10
 45.128818511962891
 20
 88.121940612792969
 11
 57.128818511962891
 21
 88.121940612792969
  0
LINE
  8
0
  6
CONTINUOUS
 62
     2
 10
 57.128818511962891
 20
 88.121940612792969
 11
 57.128818511962891
 21
 39.121940612792969
  0
LINE
  8
0
  6
CONTINUOUS
 62
     2
 10
 57.128818511962891
 20
 39.121940612792969
 11
 45.128818511962891
 21
 39.121940612792969
  0
CIRCLE
  8
0
  6
CONTINUOUS
 62
     2
 10
 52.128818511962891
 20
 63.621940612792969
 40
 2
  0
LINE
  8
0
  6
CONTINUOUS
 62
     7
 10
 57.128818511962891
 20
 37.121940612792969
 11
 57.128818511962891
 21
 13.161946296691895
  0
CIRCLE
  8
0
  6
CONTINUOUS
 62
     3
 10
 29.628803253173828
 20
 63.621940612792969
 40
 3
  0
CIRCLE
  8
0
  6
CONTINUOUS
 62
     3
 10
-30.371204376220703
 20
 63.621940612792969
 40
 3
  0
LINE
  8
0
  6
CONTINUOUS
 62
     2
 10
-21.994991302490234
 20
 71.781364440917969
 11
-7.7884635925292969
 21
 71.781364440917969
  0
TEXT
  8
0
  6
CONTINUOUS
 62
     2
 10
-19.613567352294922
 20
 72.531364440917969
 11
-10.113567352294922
 21
 72.531364440917969
 40
 2.5
 41
 0.8
  1
２－φ６
 50
 0
 72
  5
  0
TEXT
  8
0
  6
CONTINUOUS
 62
     2
 10
-17.533567333221434
 20
 68.631364464759827
 11
-1.6535676002502449
 21
 68.631364464759827
 40
 2.2999999523162842
 41
 0.8
  1
（ＰＩＬＯＴ）
 50
 0
 72
  5
  0
LINE
  8
0
  6
CONTINUOUS
 62
     2
 10
-21.994991302490234
 20
 71.781364440917969
 11
-28.222255706787109
 21
 65.71527099609375
  0
LINE
  8
0
  6
CONTINUOUS
 62
     2
 10
-28.222255706787109
 20
 65.71527099609375
 11
-25.604738824162581
 21
 67.181083183645612
  0
LINE
  8
0
  6
CONTINUOUS
 62
     2
 10
-28.222255706787109
 20
 65.71527099609375
 11
-26.688325685375546
 21
 68.293460029002759
  0
LINE
  8
0
  6
DOT
 62
     3
 10
-42.374141693115234
 20
 81.121940612792969
 11
-44.671207427978516
 21
 78.824844360351563
  0
LINE
  8
0
  6
DOT
 62
     3
 10
-44.671207427978516
 20
 83.419036865234375
 11
-42.374141693115234
 21
 81.121940612792969
  0
LINE
  8
0
  6
CONTINUOUS
 62
     3
 10
-42.871223449707031
 20
 81.121940612792969
 11
-45.371189117431641
 21
 78.621940612792969
  0
LINE
  8
0
  6
CONTINUOUS
 62
     3
 10
-45.371189117431641
 20
 78.621940612792969
 11
-45.871189117431641
 21
 81.121940612792969
  0
LINE
  8
0
  6
CONTINUOUS
 62
     3
 10
-45.871189117431641
 20
 81.121940612792969
 11
-45.3712158203125
 21
 83.621940612792969
  0
LINE
  8
0
  6
CONTINUOUS
 62
     3
 10
-45.3712158203125
 20
 83.621940612792969
 11
-42.871223449707031
 21
 81.121940612792969
  0
LINE
  8
0
  6
DOT
 62
     3
 10
-42.374141693115234
 20
 46.121940612792969
 11
-44.671207427978516
 21
 43.824844360351563
  0
LINE
  8
0
  6
DOT
 62
     3
 10
-44.671207427978516
 20
 48.419036865234375
 11
-42.374141693115234
 21
 46.121940612792969
  0
LINE
  8
0
  6
CONTINUOUS
 62
     3
 10
-42.871223449707031
 20
 46.121940612792969
 11
-45.371189117431641
 21
 43.621940612792969
  0
LINE
  8
0
  6
CONTINUOUS
 62
     3
 10
-45.371189117431641
 20
 43.621940612792969
 11
-45.871189117431641
 21
 46.121940612792969
  0
LINE
  8
0
  6
CONTINUOUS
 62
     3
 10
-45.871189117431641
 20
 46.121940612792969
 11
-45.3712158203125
 21
 48.621940612792969
  0
LINE
  8
0
  6
CONTINUOUS
 62
     3
 10
-45.3712158203125
 20
 48.621940612792969
 11
-42.871223449707031
 21
 46.121940612792969
  0
LINE
  8
0
  6
DOT
 62
     3
 10
 41.631763458251953
 20
 63.621940612792969
 11
 43.928836822509766
 21
 61.324844360351563
  0
LINE
  8
0
  6
DOT
 62
     3
 10
 43.928836822509766
 20
 65.919036865234375
 11
 41.631763458251953
 21
 63.621940612792969
  0
LINE
  8
0
  6
CONTINUOUS
 62
     3
 10
 42.128864288330078
 20
 63.621940612792969
 11
 44.628818511962891
 21
 61.121940612792969
  0
LINE
  8
0
  6
CONTINUOUS
 62
     3
 10
 44.628818511962891
 20
 61.121940612792969
 11
 45.128818511962891
 21
 63.621940612792969
  0
LINE
  8
0
  6
CONTINUOUS
 62
     3
 10
 45.128818511962891
 20
 63.621940612792969
 11
 44.628849029541016
 21
 66.121940612792969
  0
LINE
  8
0
  6
CONTINUOUS
 62
     3
 10
 44.628849029541016
 20
 66.121940612792969
 11
 42.128864288330078
 21
 63.621940612792969
  0
LINE
  8
256
  6
CONTINUOUS
 62
     7
 10
-193.30000000000001
 20
 124.99999645625348
 11
-93.300000000000011
 21
 124.99999645625348
  0
LINE
  8
256
  6
CONTINUOUS
 62
     7
 10
-93.300000000000011
 20
 124.9999964562535
 11
-93.300000000000011
 21
 136.99999721136808
  0
TEXT
  8
256
  6
CONTINUOUS
 62
     7
 10
-188.30000000000001
 20
 127.99999604817611
 11
-140.30000000000001
 21
 127.99999604817611
 40
 6
 41
 1
  1
ＬＢ－Ｄ７２１０
 50
 0
 72
  5
  0
LINE
  8
256
  6
CONTINUOUS
 62
     7
 10
 104.99998474121094
 20
-121.5
 11
 200
 21
-121.5
  0
LINE
  8
256
  6
CONTINUOUS
 62
     7
 10
 170.99998474121094
 20
-109.5
 11
 170.99998474121094
 21
-121.5
  0
TEXT
  8
256
  6
CONTINUOUS
 62
     7
 10
 112.5
 20
-134.25
 11
 148.5
 21
-134.25
 40
 6
 41
 1
  1
ＢＨ１７－Ｆ
 50
 0
 72
  5
  0
TEXT
  8
256
  6
CONTINUOUS
 62
     7
 10
 113.99998474121094
 20
-119.75
 11
 161.99998474121094
 21
-119.75
 40
 5
 41
 0.8
  1
分岐ＭＣＣＢ取付補助金具
 50
 0
 72
  5
  0
TEXT
  8
256
  6
CONTINUOUS
 62
     7
 10
 106.29998779296875
 20
-112.4499633789062
 11
 111.29998779296875
 21
-112.4499633789062
 40
 2.5
 41
 0.8
  1
品名
 50
 0
 72
  5
  0
TEXT
  8
256
  6
CONTINUOUS
 62
     7
 10
 106.29998779296875
 20
-124.45003051757811
 11
 111.29998779296875
 21
-124.45003051757811
 40
 2.5
 41
 0.8
  1
品番
 50
 0
 72
  5
  0
LINE
  8
256
  6
CONTINUOUS
 62
     7
 10
 104.99998474121094
 20
-139.5
 11
 104.99998474121094
 21
-109.5
  0
LINE
  8
256
  6
CONTINUOUS
 62
     7
 10
 104.99998474121094
 20
-109.5
 11
 200
 21
-109.5
  0
LINE
  8
256
  6
CONTINUOUS
 62
     7
 10
-193.30000000000001
 20
 136.99999721136808
 11
-193.30000000000001
 21
-139.49999999999994
  0
LINE
  8
256
  6
CONTINUOUS
 62
     7
 10
-193.30000000000001
 20
 136.99999721136808
 11
 200
 21
 136.99999721136808
  0
LINE
  8
256
  6
CONTINUOUS
 62
     7
 10
 200
 20
-139.5
 11
-193.30000000000001
 21
-139.49999999999994
  0
LINE
  8
256
  6
CONTINUOUS
 62
     7
 10
 200
 20
 136.99999721136808
 11
 200
 21
-139.5
  0
LINE
  8
0
  6
CONTINUOUS
 62
     7
 10
-59.871227264404297
 20
-43.454837799072266
 11
-75.031198501586914
 21
-43.454837799072266
  0
LINE
  8
0
  6
CONTINUOUS
 62
     7
 10
-48.152660369873047
 20
-26.45484733581543
 11
-75.031198501586914
 21
-26.45484733581543
  0
LINE
  8
0
  6
CONTINUOUS
 62
     7
 10
-74.071208953857422
 20
-43.454837799072266
 11
-74.071208953857422
 21
-26.45484733581543
  0
LINE
  8
0
  6
CONTINUOUS
 62
     7
 10
-74.071208953857422
 20
-43.454837799072266
 11
-73.294751818549855
 21
-40.557060320205061
  0
LINE
  8
0
  6
CONTINUOUS
 62
     7
 10
-74.071208953857422
 20
-43.454837799072266
 11
-74.847666089164989
 21
-40.557060320205061
  0
LINE
  8
0
  6
CONTINUOUS
 62
     7
 10
-74.071208953857422
 20
-26.45484733581543
 11
-74.847666089164989
 21
-29.352624814682635
  0
LINE
  8
0
  6
CONTINUOUS
 62
     7
 10
-74.071208953857422
 20
-26.45484733581543
 11
-73.294751818549855
 21
-29.352624814682635
  0
TEXT
  8
0
  6
CONTINUOUS
 62
     7
 10
-75.031198466617795
 20
-36.804836992421421
 11
-75.031198628349941
 21
-33.104836992421419
 40
 2
 41
 0.8
  1
17
 50
 90.000004039712721
 72
  5
  0
LINE
  8
0
  6
CONTINUOUS
 62
     7
 10
 52.128803253173828
 20
-42.254833221435547
 11
 52.128803253173828
 21
-5.4948306083679199
  0
LINE
  8
0
  6
CONTINUOUS
 62
     7
 10
 52.128803253173828
 20
-6.4548335075378418
 11
-0.3712043762207031
 21
-6.4548335075378418
  0
LINE
  8
0
  6
CONTINUOUS
 62
     7
 10
 52.128803253173828
 20
-6.4548335075378418
 11
 49.231025774306623
 21
-5.6783763722302796
  0
LINE
  8
0
  6
CONTINUOUS
 62
     7
 10
 52.128803253173828
 20
-6.4548335075378418
 11
 49.231025774306623
 21
-7.231290642845404
  0
LINE
  8
0
  6
CONTINUOUS
 62
     7
 10
-0.3712043762207031
 20
-6.4548335075378418
 11
 2.5265731026465019
 21
-7.231290642845404
  0
LINE
  8
0
  6
CONTINUOUS
 62
     7
 10
-0.3712043762207031
 20
-6.4548335075378418
 11
 2.5265731026465019
 21
-5.6783763722302796
  0
TEXT
  8
0
  6
CONTINUOUS
 62
     7
 10
 21.928801727294921
 20
-5.4948315620422363
 11
 29.82880172729492
 21
-5.4948315620422363
 40
 2
 41
 0.8
  1
52.5
 50
 0
 72
  5
  0
LINE
  8
0
  6
CONTINUOUS
 62
     7
 10
-57.871227264404297
 20
-45.705093383789063
 11
-57.871227264404297
 21
-54.414821624755859
  0
LINE
  8
0
  6
CONTINUOUS
 62
     7
 10
-45.871196746826172
 20
-44.639369964599609
 11
-45.871196746826172
 21
-54.414821624755859
  0
LINE
  8
0
  6
CONTINUOUS
 62
     7
 10
-57.871227264404297
 20
-53.454837799072266
 11
-45.871196746826172
 21
-53.454837799072266
  0
LINE
  8
0
  6
CONTINUOUS
 62
     7
 10
-57.871227264404297
 20
-53.454837799072266
 11
-54.973449785537092
 21
-54.231294934379825
  0
LINE
  8
0
  6
CONTINUOUS
 62
     7
 10
-57.871227264404297
 20
-53.454837799072266
 11
-54.973449785537092
 21
-52.678380663764706
  0
LINE
  8
0
  6
CONTINUOUS
 62
     7
 10
-45.871196746826172
 20
-53.454837799072266
 11
-48.768974225693377
 21
-52.678380663764706
  0
LINE
  8
0
  6
CONTINUOUS
 62
     7
 10
-45.871196746826172
 20
-53.454837799072266
 11
-48.768974225693377
 21
-54.231294934379825
  0
TEXT
  8
0
  6
CONTINUOUS
 62
     7
 10
-53.721215057373044
 20
-52.494827270507812
 11
-50.021215057373041
 21
-52.494827270507812
 40
 2
 41
 0.8
  1
12
 50
 0
 72
  5
  0
LINE
  8
0
  6
CONTINUOUS
 62
     7
 10
-52.871227264404297
 20
-46.057834625244141
 11
-52.871227264404297
 21
-49.414836883544922
  0
LINE
  8
0
  6
CONTINUOUS
 62
     7
 10
-57.871227264404297
 20
-48.454841613769531
 11
-52.871227264404297
 21
-48.454841613769531
  0
LINE
  8
0
  6
CONTINUOUS
 62
     7
 10
-57.871227264404297
 20
-48.454841613769531
 11
-54.973449785537092
 21
-49.231298749077091
  0
LINE
  8
0
  6
CONTINUOUS
 62
     7
 10
-57.871227264404297
 20
-48.454841613769531
 11
-54.973449785537092
 21
-47.678384478461972
  0
LINE
  8
0
  6
CONTINUOUS
 62
     7
 10
-52.871227264404297
 20
-48.454841613769531
 11
-55.769004743271502
 21
-47.678384478461972
  0
LINE
  8
0
  6
CONTINUOUS
 62
     7
 10
-52.871227264404297
 20
-48.454841613769531
 11
-55.769004743271502
 21
-49.231298749077091
  0
TEXT
  8
0
  6
CONTINUOUS
 62
     7
 10
-56.171227264404294
 20
-47.494831085205078
 11
-54.571227264404293
 21
-47.494831085205078
 40
 2
 41
 0.8
  1
5
 50
 0
 72
  5
  0
LINE
  8
0
  6
CONTINUOUS
 62
     7
 10
-35.371219635009766
 20
-11.454830169677734
 11
-0.3712043762207031
 21
-11.454830169677734
  0
LINE
  8
0
  6
CONTINUOUS
 62
     7
 10
-35.371219635009766
 20
-11.454830169677734
 11
-32.473442156142561
 21
-12.231287304985297
  0
LINE
  8
0
  6
CONTINUOUS
 62
     7
 10
-35.371219635009766
 20
-11.454830169677734
 11
-32.473442156142561
 21
-10.678373034370171
  0
LINE
  8
0
  6
CONTINUOUS
 62
     7
 10
-0.3712043762207031
 20
-11.454830169677734
 11
-3.2689818550879082
 21
-10.678373034370171
  0
LINE
  8
0
  6
CONTINUOUS
 62
     7
 10
-0.3712043762207031
 20
-11.454830169677734
 11
-3.2689818550879082
 21
-12.231287304985297
  0
TEXT
  8
0
  6
CONTINUOUS
 62
     7
 10
-19.721215057373048
 20
-10.494821548461914
 11
-16.021215057373048
 21
-10.494821548461914
 40
 2
 41
 0.8
  1
35
 50
 0
 72
  5
  0
LINE
  8
0
  6
CONTINUOUS
 62
     7
 10
 45.128818511962891
 20
-22.400171279907227
 11
 45.128818511962891
 21
-18.094812393188477
  0
LINE
  8
0
  6
CONTINUOUS
 62
     7
 10
 40.128803253173828
 20
-22.400171279907227
 11
 40.128803253173828
 21
-18.094812393188477
  0
LINE
  8
0
  6
CONTINUOUS
 62
     7
 10
 45.128818511962891
 20
-19.054821014404297
 11
 40.128803253173828
 21
-19.054821014404297
  0
LINE
  8
0
  6
CONTINUOUS
 62
     7
 10
 45.128818511962891
 20
-19.054821014404297
 11
 42.231041033095686
 21
-18.278363879096734
  0
LINE
  8
0
  6
CONTINUOUS
 62
     7
 10
 45.128818511962891
 20
-19.054821014404297
 11
 42.231041033095686
 21
-19.83127814971186
  0
LINE
  8
0
  6
CONTINUOUS
 62
     7
 10
 40.128803253173828
 20
-19.054821014404297
 11
 43.026580732041033
 21
-19.83127814971186
  0
LINE
  8
0
  6
CONTINUOUS
 62
     7
 10
 40.128803253173828
 20
-19.054821014404297
 11
 43.026580732041033
 21
-18.278363879096734
  0
TEXT
  8
0
  6
CONTINUOUS
 62
     7
 10
 41.828818511962893
 20
-18.094812393188477
 11
 43.428818511962895
 21
-18.094812393188477
 40
 2
 41
 0.8
  1
5
 50
 0
 72
  5
  0
LINE
  8
0
  6
CONTINUOUS
 62
     7
 10
 43.928806304931641
 20
-25.054817199707031
 11
 43.928806304931641
 21
-10.494821548461914
  0
LINE
  8
0
  6
CONTINUOUS
 62
     7
 10
 43.928806304931641
 20
-11.454830169677734
 11
-0.3712043762207031
 21
-11.454830169677734
  0
LINE
  8
0
  6
CONTINUOUS
 62
     7
 10
 43.928806304931641
 20
-11.454830169677734
 11
 41.031028826064436
 21
-10.678373034370171
  0
LINE
  8
0
  6
CONTINUOUS
 62
     7
 10
 43.928806304931641
 20
-11.454830169677734
 11
 41.031028826064436
 21
-12.231287304985297
  0
LINE
  8
0
  6
CONTINUOUS
 62
     7
 10
-0.3712043762207031
 20
-11.454830169677734
 11
 2.5265731026465019
 21
-12.231287304985297
  0
LINE
  8
0
  6
CONTINUOUS
 62
     7
 10
-0.3712043762207031
 20
-11.454830169677734
 11
 2.5265731026465019
 21
-10.678373034370171
  0
TEXT
  8
0
  6
CONTINUOUS
 62
     7
 10
 17.828803253173827
 20
-10.494821548461914
 11
 25.728803253173826
 21
-10.494821548461914
 40
 2
 41
 0.8
  1
44.3
 50
 0
 72
  5
  0
LINE
  8
0
  6
CONTINUOUS
 62
     7
 10
-35.371204376220703
 20
-11.454830169677734
 11
-45.871208190917969
 21
-11.454830169677734
  0
LINE
  8
0
  6
CONTINUOUS
 62
     7
 10
-35.371204376220703
 20
-11.454830169677734
 11
-38.268981855087908
 21
-10.678373034370171
  0
LINE
  8
0
  6
CONTINUOUS
 62
     7
 10
-35.371204376220703
 20
-11.454830169677734
 11
-38.268981855087908
 21
-12.231287304985297
  0
LINE
  8
0
  6
CONTINUOUS
 62
     7
 10
-45.871208190917969
 20
-11.454830169677734
 11
-42.973430712050764
 21
-12.231287304985297
  0
LINE
  8
0
  6
CONTINUOUS
 62
     7
 10
-45.871208190917969
 20
-11.454830169677734
 11
-42.973430712050764
 21
-10.678373034370171
  0
TEXT
  8
0
  6
CONTINUOUS
 62
     7
 10
-44.571202087402341
 20
-10.494821548461914
 11
-36.671202087402342
 21
-10.494821548461914
 40
 2
 41
 0.8
  1
10.5
 50
 0
 72
  5
  0
LINE
  8
0
  6
CONTINUOUS
 62
     7
 10
 57.128803253173828
 20
-43.954837799072266
 11
 57.128803253173828
 21
-54.414848327636719
  0
LINE
  8
0
  6
CONTINUOUS
 62
     7
 10
 45.128818511962891
 20
-53.454837799072266
 11
 57.128803253173828
 21
-53.454837799072266
  0
LINE
  8
0
  6
CONTINUOUS
 62
     7
 10
 45.128818511962891
 20
-53.454837799072266
 11
 48.026595990830096
 21
-54.231294934379825
  0
LINE
  8
0
  6
CONTINUOUS
 62
     7
 10
 45.128818511962891
 20
-53.454837799072266
 11
 48.026595990830096
 21
-52.678380663764706
  0
LINE
  8
0
  6
CONTINUOUS
 62
     7
 10
 57.128803253173828
 20
-53.454837799072266
 11
 54.231025774306623
 21
-52.678380663764706
  0
LINE
  8
0
  6
CONTINUOUS
 62
     7
 10
 57.128803253173828
 20
-53.454837799072266
 11
 54.231025774306623
 21
-54.231294934379825
  0
TEXT
  8
0
  6
CONTINUOUS
 62
     7
 10
 49.278800201416018
 20
-52.494853973388672
 11
 52.978800201416021
 21
-52.494853973388672
 40
 2
 41
 0.8
  1
12
 50
 0
 72
  5
  0
LINE
  8
0
  6
CONTINUOUS
 62
     7
 10
 52.128803253173828
 20
-45.468307495117188
 11
 52.128803253173828
 21
-49.414836883544922
  0
LINE
  8
0
  6
CONTINUOUS
 62
     7
 10
 57.128803253173828
 20
-48.454853057861328
 11
 52.128803253173828
 21
-48.454853057861328
  0
LINE
  8
0
  6
CONTINUOUS
 62
     7
 10
 57.128803253173828
 20
-48.454853057861328
 11
 54.231025774306623
 21
-47.678395922553769
  0
LINE
  8
0
  6
CONTINUOUS
 62
     7
 10
 57.128803253173828
 20
-48.454853057861328
 11
 54.231025774306623
 21
-49.231310193168888
  0
LINE
  8
0
  6
CONTINUOUS
 62
     7
 10
 52.128803253173828
 20
-48.454853057861328
 11
 55.026580732041033
 21
-49.231310193168888
  0
LINE
  8
0
  6
CONTINUOUS
 62
     7
 10
 52.128803253173828
 20
-48.454853057861328
 11
 55.026580732041033
 21
-47.678395922553769
  0
TEXT
  8
0
  6
CONTINUOUS
 62
     7
 10
 53.828803253173831
 20
-47.494846343994141
 11
 55.428803253173832
 21
-47.494846343994141
 40
 2
 41
 0.8
  1
5
 50
 0
 72
  5
  0
LINE
  8
0
  6
CONTINUOUS
 62
     7
 10
 59.128818511962891
 20
 88.121940612792969
 11
 78.088809967041016
 21
 88.121932983398438
  0
LINE
  8
0
  6
CONTINUOUS
 62
     7
 10
 59.128818511962891
 20
 39.121944427490234
 11
 78.088809967041016
 21
 39.121940612792969
  0
LINE
  8
0
  6
CONTINUOUS
 62
     7
 10
 77.128818511962891
 20
 88.121932983398438
 11
 77.128818511962891
 21
 39.121940612792969
  0
LINE
  8
0
  6
CONTINUOUS
 62
     7
 10
 77.128818511962891
 20
 88.121932983398438
 11
 76.352361376655324
 21
 85.22415550453124
  0
LINE
  8
0
  6
CONTINUOUS
 62
     7
 10
 77.128818511962891
 20
 88.121932983398438
 11
 77.905275647270457
 21
 85.22415550453124
  0
LINE
  8
0
  6
CONTINUOUS
 62
     7
 10
 77.128818511962891
 20
 39.121940612792969
 11
 77.905275647270457
 21
 42.019718091660174
  0
LINE
  8
0
  6
CONTINUOUS
 62
     7
 10
 77.128818511962891
 20
 39.121940612792969
 11
 76.352361376655324
 21
 42.019718091660174
  0
TEXT
  8
0
  6
CONTINUOUS
 62
     7
 10
 76.168811833064822
 20
 61.771937604746547
 11
 76.168811671332676
 21
 65.471937604746543
 40
 2
 41
 0.8
  1
49
 50
 90.000004039712721
 72
  5
  0
LINE
  8
0
  6
CONTINUOUS
 62
     7
 10
-72.67120361328125
 20
 39.121944427490234
 11
-72.67120361328125
 21
 63.621940612792969
  0
LINE
  8
0
  6
CONTINUOUS
 62
     7
 10
-72.67120361328125
 20
 39.121944427490234
 11
-71.894746477973683
 21
 42.019721906357439
  0
LINE
  8
0
  6
CONTINUOUS
 62
     7
 10
-72.67120361328125
 20
 39.121944427490234
 11
-73.447660748588817
 21
 42.019721906357439
  0
LINE
  8
0
  6
CONTINUOUS
 62
     7
 10
-72.67120361328125
 20
 63.621940612792969
 11
-73.447660748588817
 21
 60.724163133925764
  0
LINE
  8
0
  6
CONTINUOUS
 62
     7
 10
-72.67120361328125
 20
 63.621940612792969
 11
-71.894746477973683
 21
 60.724163133925764
  0
TEXT
  8
0
  6
CONTINUOUS
 62
     7
 10
-73.631196940738889
 20
 47.421942945322719
 11
-73.631197286058878
 21
 55.321942945322718
 40
 2
 41
 0.8
  1
24.5
 50
 90.000004039712721
 72
  5
  0
LINE
  8
0
  6
CONTINUOUS
 62
     7
 10
-72.67120361328125
 20
 63.621940612792969
 11
-72.67120361328125
 21
 88.121940612792969
  0
LINE
  8
0
  6
CONTINUOUS
 62
     7
 10
-72.67120361328125
 20
 63.621940612792969
 11
-71.894746477973683
 21
 66.519718091660167
  0
LINE
  8
0
  6
CONTINUOUS
 62
     7
 10
-72.67120361328125
 20
 63.621940612792969
 11
-73.447660748588817
 21
 66.519718091660167
  0
LINE
  8
0
  6
CONTINUOUS
 62
     7
 10
-72.67120361328125
 20
 88.121940612792969
 11
-73.447660748588817
 21
 85.224163133925771
  0
LINE
  8
0
  6
CONTINUOUS
 62
     7
 10
-72.67120361328125
 20
 88.121940612792969
 11
-71.894746477973683
 21
 85.224163133925771
  0
TEXT
  8
0
  6
CONTINUOUS
 62
     7
 10
-73.631196940738889
 20
 71.921939130625447
 11
-73.631197286058878
 21
 79.821939130625452
 40
 2
 41
 0.8
  1
24.5
 50
 90.000004039712721
 72
  5
  0
LINE
  8
0
  6
CONTINUOUS
 62
     7
 10
 72.128818511962891
 20
 51.121936798095703
 11
 72.128818511962891
 21
 39.121940612792969
  0
LINE
  8
0
  6
CONTINUOUS
 62
     7
 10
 72.128818511962891
 20
 51.121936798095703
 11
 71.352361376655324
 21
 48.224159319228498
  0
LINE
  8
0
  6
CONTINUOUS
 62
     7
 10
 72.128818511962891
 20
 51.121936798095703
 11
 72.905275647270457
 21
 48.224159319228498
  0
LINE
  8
0
  6
CONTINUOUS
 62
     7
 10
 72.128818511962891
 20
 39.121940612792969
 11
 72.905275647270457
 21
 42.019718091660174
  0
LINE
  8
0
  6
CONTINUOUS
 62
     7
 10
 72.128818511962891
 20
 39.121940612792969
 11
 71.352361376655324
 21
 42.019718091660174
  0
TEXT
  8
0
  6
CONTINUOUS
 62
     7
 10
 71.168811833064822
 20
 43.271937604746547
 11
 71.168811671332676
 21
 46.97193760474655
 40
 2
 41
 0.8
  1
12
 50
 90.000004039712721
 72
  5
  0
LINE
  8
0
  6
CONTINUOUS
 62
     7
 10
 59.128818511962891
 20
 76.121940612792969
 11
 73.088809967041016
 21
 76.121932983398438
  0
LINE
  8
0
  6
CONTINUOUS
 62
     7
 10
 72.128818511962891
 20
 76.121932983398438
 11
 72.128818511962891
 21
 51.121936798095703
  0
LINE
  8
0
  6
CONTINUOUS
 62
     7
 10
 72.128818511962891
 20
 76.121932983398438
 11
 71.352361376655324
 21
 73.22415550453124
  0
LINE
  8
0
  6
CONTINUOUS
 62
     7
 10
 72.128818511962891
 20
 76.121932983398438
 11
 72.905275647270457
 21
 73.22415550453124
  0
LINE
  8
0
  6
CONTINUOUS
 62
     7
 10
 72.128818511962891
 20
 51.121936798095703
 11
 72.905275647270457
 21
 54.019714276962908
  0
LINE
  8
0
  6
CONTINUOUS
 62
     7
 10
 72.128818511962891
 20
 51.121936798095703
 11
 71.352361376655324
 21
 54.019714276962908
  0
TEXT
  8
0
  6
CONTINUOUS
 62
     7
 10
 71.168811833064822
 20
 61.771933790049282
 11
 71.168811671332676
 21
 65.471933790049277
 40
 2
 41
 0.8
  1
25
 50
 90.000004039712721
 72
  5
  0
LINE
  8
0
  6
CONTINUOUS
 62
     7
 10
 72.128818511962891
 20
 88.121932983398438
 11
 72.128818511962891
 21
 76.121932983398438
  0
LINE
  8
0
  6
CONTINUOUS
 62
     7
 10
 72.128818511962891
 20
 88.121932983398438
 11
 71.352361376655324
 21
 85.22415550453124
  0
LINE
  8
0
  6
CONTINUOUS
 62
     7
 10
 72.128818511962891
 20
 88.121932983398438
 11
 72.905275647270457
 21
 85.22415550453124
  0
LINE
  8
0
  6
CONTINUOUS
 62
     7
 10
 72.128818511962891
 20
 76.121932983398438
 11
 72.905275647270457
 21
 79.019710462265635
  0
LINE
  8
0
  6
CONTINUOUS
 62
     7
 10
 72.128818511962891
 20
 76.121932983398438
 11
 71.352361376655324
 21
 79.019710462265635
  0
TEXT
  8
0
  6
CONTINUOUS
 62
     7
 10
 71.168811833064822
 20
 80.271929975352009
 11
 71.168811671332676
 21
 83.971929975352012
 40
 2
 41
 0.8
  1
12
 50
 90.000004039712721
 72
  5
  0
LINE
  8
0
  6
CONTINUOUS
 62
     7
 10
-57.871189117431641
 20
 14.121943473815918
 11
 57.128818511962891
 21
 14.121943473815918
  0
LINE
  8
0
  6
CONTINUOUS
 62
     7
 10
-57.871189117431641
 20
 14.121943473815918
 11
-54.973411638564436
 21
 13.345486338508355
  0
LINE
  8
0
  6
CONTINUOUS
 62
     7
 10
-57.871189117431641
 20
 14.121943473815918
 11
-54.973411638564436
 21
 14.898400609123481
  0
LINE
  8
0
  6
CONTINUOUS
 62
     7
 10
 57.128818511962891
 20
 14.121943473815918
 11
 54.231041033095686
 21
 14.898400609123481
  0
LINE
  8
0
  6
CONTINUOUS
 62
     7
 10
 57.128818511962891
 20
 14.121943473815918
 11
 54.231041033095686
 21
 13.345486338508355
  0
TEXT
  8
0
  6
CONTINUOUS
 62
     7
 10
-3.2711875915527342
 20
 15.081941604614258
 11
 2.5288124084472665
 21
 15.081941604614258
 40
 2
 41
 0.8
  1
115
 50
 0
 72
  5
  0
LINE
  8
0
  6
CONTINUOUS
 62
     7
 10
-52.871219635009766
 20
 24.121944427490234
 11
-57.871189117431641
 21
 24.121944427490234
  0
LINE
  8
0
  6
CONTINUOUS
 62
     7
 10
-52.871219635009766
 20
 24.121944427490234
 11
-55.768997113876971
 21
 24.898401562797797
  0
LINE
  8
0
  6
CONTINUOUS
 62
     7
 10
-52.871219635009766
 20
 24.121944427490234
 11
-55.768997113876971
 21
 23.345487292182671
  0
LINE
  8
0
  6
CONTINUOUS
 62
     7
 10
-57.871189117431641
 20
 24.121944427490234
 11
-54.973411638564436
 21
 23.345487292182671
  0
LINE
  8
0
  6
CONTINUOUS
 62
     7
 10
-57.871189117431641
 20
 24.121944427490234
 11
-54.973411638564436
 21
 24.898401562797797
  0
TEXT
  8
0
  6
CONTINUOUS
 62
     7
 10
-56.1712043762207
 20
 25.081939697265625
 11
-54.571204376220699
 21
 25.081939697265625
 40
 2
 41
 0.8
  1
5
 50
 0
 72
  5
  0
LINE
  8
0
  6
CONTINUOUS
 62
     7
 10
-45.871189117431641
 20
 37.121940612792969
 11
-45.871189117431641
 21
 28.161941528320313
  0
LINE
  8
0
  6
CONTINUOUS
 62
     7
 10
-45.871189117431641
 20
 28.621944427490234
 11
-45.871189117431641
 21
 18.16193962097168
  0
LINE
  8
0
  6
CONTINUOUS
 62
     7
 10
 45.128818511962891
 20
 19.121942520141602
 11
-45.871189117431641
 21
 19.121942520141602
  0
LINE
  8
0
  6
CONTINUOUS
 62
     7
 10
 45.128818511962891
 20
 19.121942520141602
 11
 42.231041033095686
 21
 19.898399655449165
  0
LINE
  8
0
  6
CONTINUOUS
 62
     7
 10
 45.128818511962891
 20
 19.121942520141602
 11
 42.231041033095686
 21
 18.345485384834038
  0
LINE
  8
0
  6
CONTINUOUS
 62
     7
 10
-45.871189117431641
 20
 19.121942520141602
 11
-42.973411638564436
 21
 18.345485384834038
  0
LINE
  8
0
  6
CONTINUOUS
 62
     7
 10
-45.871189117431641
 20
 19.121942520141602
 11
-42.973411638564436
 21
 19.898399655449165
  0
TEXT
  8
0
  6
CONTINUOUS
 62
     7
 10
-2.2211845397949217
 20
 20.081941604614258
 11
 1.4788154602050785
 21
 20.081941604614258
 40
 2
 41
 0.8
  1
91
 50
 0
 72
  5
  0
LINE
  8
0
  6
CONTINUOUS
 62
     7
 10
-45.871189117431641
 20
 19.121942520141602
 11
-57.871189117431641
 21
 19.121942520141602
  0
LINE
  8
0
  6
CONTINUOUS
 62
     7
 10
-45.871189117431641
 20
 19.121942520141602
 11
-48.768966596298846
 21
 19.898399655449165
  0
LINE
  8
0
  6
CONTINUOUS
 62
     7
 10
-45.871189117431641
 20
 19.121942520141602
 11
-48.768966596298846
 21
 18.345485384834038
  0
LINE
  8
0
  6
CONTINUOUS
 62
     7
 10
-57.871189117431641
 20
 19.121942520141602
 11
-54.973411638564436
 21
 18.345485384834038
  0
LINE
  8
0
  6
CONTINUOUS
 62
     7
 10
-57.871189117431641
 20
 19.121942520141602
 11
-54.973411638564436
 21
 19.898399655449165
  0
TEXT
  8
0
  6
CONTINUOUS
 62
     7
 10
-53.72119216918945
 20
 20.081941604614258
 11
-50.021192169189447
 21
 20.081941604614258
 40
 2
 41
 0.8
  1
12
 50
 0
 72
  5
  0
LINE
  8
0
  6
CONTINUOUS
 62
     7
 10
-45.871189117431641
 20
 29.121944427490234
 11
-35.371196746826172
 21
 29.121944427490234
  0
LINE
  8
0
  6
CONTINUOUS
 62
     7
 10
-45.871189117431641
 20
 29.121944427490234
 11
-42.973411638564436
 21
 28.345487292182671
  0
LINE
  8
0
  6
CONTINUOUS
 62
     7
 10
-45.871189117431641
 20
 29.121944427490234
 11
-42.973411638564436
 21
 29.898401562797797
  0
LINE
  8
0
  6
CONTINUOUS
 62
     7
 10
-35.371196746826172
 20
 29.121944427490234
 11
-38.268974225693377
 21
 29.898401562797797
  0
LINE
  8
0
  6
CONTINUOUS
 62
     7
 10
-35.371196746826172
 20
 29.121944427490234
 11
-38.268974225693377
 21
 28.345487292182671
  0
TEXT
  8
0
  6
CONTINUOUS
 62
     7
 10
-44.571190643310544
 20
 30.081939697265625
 11
-36.671190643310545
 21
 30.081939697265625
 40
 2
 41
 0.8
  1
10.5
 50
 0
 72
  5
  0
LINE
  8
0
  6
CONTINUOUS
 62
     7
 10
-35.371196746826172
 20
 46.337070465087891
 11
-35.371196746826172
 21
 28.161943435668945
  0
LINE
  8
0
  6
CONTINUOUS
 62
     7
 10
 43.928806304931641
 20
 29.121944427490234
 11
-35.371196746826172
 21
 29.121944427490234
  0
LINE
  8
0
  6
CONTINUOUS
 62
     7
 10
 43.928806304931641
 20
 29.121944427490234
 11
 41.031028826064436
 21
 29.898401562797797
  0
LINE
  8
0
  6
CONTINUOUS
 62
     7
 10
 43.928806304931641
 20
 29.121944427490234
 11
 41.031028826064436
 21
 28.345487292182671
  0
LINE
  8
0
  6
CONTINUOUS
 62
     7
 10
-35.371196746826172
 20
 29.121944427490234
 11
-32.473419267958967
 21
 28.345487292182671
  0
LINE
  8
0
  6
CONTINUOUS
 62
     7
 10
-35.371196746826172
 20
 29.121944427490234
 11
-32.473419267958967
 21
 29.898401562797797
  0
TEXT
  8
0
  6
CONTINUOUS
 62
     7
 10
 0.3288032531738281
 20
 30.081943511962891
 11
 8.2288032531738278
 21
 30.081943511962891
 40
 2
 41
 0.8
  1
79.3
 50
 0
 72
  5
  0
LINE
  8
0
  6
CONTINUOUS
 62
     7
 10
-48.842014312744141
 20
 76.121940612792969
 11
-68.631229400634766
 21
 76.121940612792969
  0
LINE
  8
0
  6
CONTINUOUS
 62
     7
 10
-67.671222686767578
 20
 63.621940612792969
 11
-67.671222686767578
 21
 76.121940612792969
  0
LINE
  8
0
  6
CONTINUOUS
 62
     7
 10
-67.671222686767578
 20
 63.621940612792969
 11
-66.894765551460011
 21
 66.519718091660167
  0
LINE
  8
0
  6
CONTINUOUS
 62
     7
 10
-67.671222686767578
 20
 63.621940612792969
 11
-68.447679822075145
 21
 66.519718091660167
  0
LINE
  8
0
  6
CONTINUOUS
 62
     7
 10
-67.671222686767578
 20
 76.121940612792969
 11
-68.447679822075145
 21
 73.224163133925771
  0
LINE
  8
0
  6
CONTINUOUS
 62
     7
 10
-67.671222686767578
 20
 76.121940612792969
 11
-66.894765551460011
 21
 73.224163133925771
  0
TEXT
  8
0
  6
CONTINUOUS
 62
     7
 10
-68.631229365665646
 20
 65.921939130625447
 11
-68.631229710985636
 21
 73.821939130625452
 40
 2
 41
 0.8
  1
12.5
 50
 90.000004039712721
 72
  5
  0
LINE
  8
0
  6
CONTINUOUS
 62
     7
 10
-48.842014312744141
 20
 51.121940612792969
 11
-68.631229400634766
 21
 51.121940612792969
  0
LINE
  8
0
  6
CONTINUOUS
 62
     7
 10
-67.671222686767578
 20
 63.621940612792969
 11
-67.671222686767578
 21
 51.121940612792969
  0
LINE
  8
0
  6
CONTINUOUS
 62
     7
 10
-67.671222686767578
 20
 63.621940612792969
 11
-68.447679822075145
 21
 60.724163133925764
  0
LINE
  8
0
  6
CONTINUOUS
 62
     7
 10
-67.671222686767578
 20
 63.621940612792969
 11
-66.894765551460011
 21
 60.724163133925764
  0
LINE
  8
0
  6
CONTINUOUS
 62
     7
 10
-67.671222686767578
 20
 51.121940612792969
 11
-66.894765551460011
 21
 54.019718091660174
  0
LINE
  8
0
  6
CONTINUOUS
 62
     7
 10
-67.671222686767578
 20
 51.121940612792969
 11
-68.447679822075145
 21
 54.019718091660174
  0
TEXT
  8
0
  6
CONTINUOUS
 62
     7
 10
-68.631229365665646
 20
 53.421939130625454
 11
-68.631229710985636
 21
 61.321939130625445
 40
 2
 41
 0.8
  1
12.5
 50
 90.000004039712721
 72
  5
  0
LINE
  8
0
  6
CONTINUOUS
 62
     7
 10
 45.128818511962891
 20
 19.121942520141602
 11
 57.128818511962891
 21
 19.121942520141602
  0
LINE
  8
0
  6
CONTINUOUS
 62
     7
 10
 45.128818511962891
 20
 19.121942520141602
 11
 48.026595990830096
 21
 18.345485384834038
  0
LINE
  8
0
  6
CONTINUOUS
 62
     7
 10
 45.128818511962891
 20
 19.121942520141602
 11
 48.026595990830096
 21
 19.898399655449165
  0
LINE
  8
0
  6
CONTINUOUS
 62
     7
 10
 57.128818511962891
 20
 19.121942520141602
 11
 54.231041033095686
 21
 19.898399655449165
  0
LINE
  8
0
  6
CONTINUOUS
 62
     7
 10
 57.128818511962891
 20
 19.121942520141602
 11
 54.231041033095686
 21
 18.345485384834038
  0
TEXT
  8
0
  6
CONTINUOUS
 62
     7
 10
 49.278830718994143
 20
 20.081941604614258
 11
 52.978830718994146
 21
 20.081941604614258
 40
 2
 41
 0.8
  1
12
 50
 0
 72
  5
  0
LINE
  8
0
  6
CONTINUOUS
 62
     7
 10
 52.128818511962891
 20
 58.413784027099609
 11
 52.128818511962891
 21
 23.161943435668945
  0
LINE
  8
0
  6
CONTINUOUS
 62
     7
 10
-52.871219635009766
 20
 24.121944427490234
 11
 52.128818511962891
 21
 24.121944427490234
  0
LINE
  8
0
  6
CONTINUOUS
 62
     7
 10
-52.871219635009766
 20
 24.121944427490234
 11
-49.973442156142561
 21
 23.345487292182671
  0
LINE
  8
0
  6
CONTINUOUS
 62
     7
 10
-52.871219635009766
 20
 24.121944427490234
 11
-49.973442156142561
 21
 24.898401562797797
  0
LINE
  8
0
  6
CONTINUOUS
 62
     7
 10
 52.128818511962891
 20
 24.121944427490234
 11
 49.231041033095686
 21
 24.898401562797797
  0
LINE
  8
0
  6
CONTINUOUS
 62
     7
 10
 52.128818511962891
 20
 24.121944427490234
 11
 49.231041033095686
 21
 23.345487292182671
  0
TEXT
  8
0
  6
CONTINUOUS
 62
     7
 10
-3.2712028503417967
 20
 25.081941604614258
 11
 2.528797149658204
 21
 25.081941604614258
 40
 2
 41
 0.8
  1
105
 50
 0
 72
  5
  0
LINE
  8
0
  6
CONTINUOUS
 62
     7
 10
 52.128818511962891
 20
 24.121944427490234
 11
 57.128818511962891
 21
 24.121944427490234
  0
LINE
  8
0
  6
CONTINUOUS
 62
     7
 10
 52.128818511962891
 20
 24.121944427490234
 11
 55.026595990830096
 21
 23.345487292182671
  0
LINE
  8
0
  6
CONTINUOUS
 62
     7
 10
 52.128818511962891
 20
 24.121944427490234
 11
 55.026595990830096
 21
 24.898401562797797
  0
LINE
  8
0
  6
CONTINUOUS
 62
     7
 10
 57.128818511962891
 20
 24.121944427490234
 11
 54.231041033095686
 21
 24.898401562797797
  0
LINE
  8
0
  6
CONTINUOUS
 62
     7
 10
 57.128818511962891
 20
 24.121944427490234
 11
 54.231041033095686
 21
 23.345487292182671
  0
TEXT
  8
0
  6
CONTINUOUS
 62
     7
 10
 53.828818511962893
 20
 25.081941604614258
 11
 55.428818511962895
 21
 25.081941604614258
 40
 2
 41
 0.8
  1
5
 50
 0
 72
  5
  0
ENDSEC
  0
EOF
